PrimaNota.ru - самый крупный в мире бесплатный архив песенных текстов, аккордов, табулатур и нот


Sponge Cola - Sponge Cola - аккорды и текст, видео

Регистрация Запомнить меня
Войти через:  Facebook Google Twitter Vk Yandex Mail.ru

Sponge Cola - Sponge Cola - аккорды и текст, видео

Печатать
Просмотров: 108
Sponge Cola
Sponge Cola
Ayt!
Chorus:

Abm F#m
Imulat mo ang iyong mga mata
Abm F#m
Gumising ka't nandito na'ng umaga
Abm F#m
Bago ka maiwa't tuluyang makalimutan

Abm F#m Abm F#m
Kaunting bilis kami ay naghihintay

Verse:

Abm
Bumangaon na't lisanin ang yong kama
F#m
Napawi na'ng dilim, tapos na'ng pananaginip

Abm
Mananalig ka't buksan ang iyong isipan
                      F#m
Lahat ay makakamit, Paliparin ang yong mithin

Refrain:

Bm F#m
Umawit ka kasabay ng musika
Abm
Simulan ang buhay

Verse II: (Do Verse Chords)
Kumilos na't lumabas mula sa lilim
Araw ay umiigting, damhin ang kanyang init
Amuhin pagbugso ng kapalaran
Malayo pang lalakbayin, may puso lama'ng papalarin

Refrain: (Do Refrain Chords)
Pag-asa'y tangan mo sa'yong kamay
Ang kinabukasa'y abot-tana
Lumigon ka sa iyong madaratnan
Dinggin ang yong tawag

(repeat chorus)







Puso

E
Hinihingal ka lang
                 C#m
May oras pang natitira
                      A
Kahit parang ang layo pa
Habol

E
Kung harangan ka man
                  C#m
Sumalakay man mga bantay
              A
Lahat kami Maghihintay
Habol, habol!

Refrain:
C#m
Dehado kung dehado
      B
Para sa'n pang mga galos mo
       A
Kung titiklop ka lang
A
Titiklop ka lang
C#m
Matalo kung matalo
           B
Huwag ka sanang magkakamaling
A
Sumuko na lang
  B
Woah

E
Maagawan ka man'
                     C#m
Lalung huwag kang papipiga
                 A   
Kumpiyansa lang bawat bangga
Woah
E
Kumaripas ka na

                  C#m
Humanda ka na sa paglipad
               A  
Pakpak nati'y ilalantad

Woah

Repeat Refrain

Chorus:2x
E
Ang puso
B/D#
Iaalay
C#m
Sa laban
  A
Kapalit ay tagumpay



Repeat Refrain

vocal solo
Ang puso
Ialay
Sa laban
Kapalit ay tagumpay

Chorus:
E
Ang puso
F#m
Iaalay
Abm                            A
Sa laban, sa laban, sa laban, sa laban mo

Intrumental E Abm C#m B

Coda:
E
Ang puso
 Abm
Iaalay
C#m 
Sa laban
B
Kapalit ay tagumpay
(Repeat thrice)

End  E


Step Back


Verse:

G                      Em
What was I supposed to say?

  G                                       Em
When I look bak, there never was an easier way

 G                                                 Em
I want to take back, the day I said "it's time to leave"

G                                             Em
Had to get back, another time for me to make believe

            C                               
When we started the song, We were reckless and ree
Just a will and a want

                                G  
For a world we though was meant to be

                 D               
It's now that I see (it's now that I see)


          C
When the music was done, Was it all just a game?
All the days we had won, Now a long lost memory,

Chorus:

 G           D     
I must have left without you, 

 C             D
Just when I thought I found you,

G            D            C
I must have left without you

Verse II: (Do Verse Chords)
Takes a steo back, there's something else I want to say
Always just another better day when I came back
You never left this avenu, now I look back
Yesterday we never had to


       C
And I know that it's gone
Noting's ever the same
Not a face or a name, Just a long lost memory

(repeat chorus)

Bridge:

 G                C
All it takes is one one small step

 G            C            G     
To fall back into time, Ours was done

    C                    G              C
What a lost and won, we just ran out of time

        C             
Still I'm drawn to the flame, and the feelings remain
But the fire for the night's now a long lost memory

(Repeat chorus)

(Do Stanza Chords)
Still I know every sng by heart, I sing it
Still I know every sng by heart, I sing it

Di na mababawi

               Bm  A     D            Bm      A            D
Ngayo'y aking inuunawang pilit,Mga pagkukulang kong iyong iginigiit

               Bm       A        D   A        Bm      A      
Sana'y malaman mo na tanging ikaw lamang, Ang aking iniintidi

(DO Stanza Chords)
Nakatanim pa sa king alaala, Pangako mong mananatili ka, 
Kaya't paglisan mo'y iniwan, Ang puso na ngayo'y bitin na bitin

Chorus:

 G          A               Bm           D              G
Di mo na mababawi, Iniwang sakit sa mga salitang binitiwan mo

           A                 Bm                            D
Hindi ba't ikaw  na rin ang nagpasiya,Nagtakda at siyang unang umiwas

 G        A               Bm
Bakit nga ba ako'y iyong pinaasa

(Do stanza chords)
Nasa aking guni-guni ang malaming mong tinig
Ksabay ng hangin na dumarampi, Na para bang nariyan sa aking paligid
Tahimik na nagmamasid

(repeat Chorus)

Bridge:

 A               G              Bm      A
Nahulog na'ng mga ulap, Buwan at araw, mga bituin

                  G                 Bm
Ang ginugol na panaho'y nasaan? (panaho'y nasaan)

     G                     Bm         A     
Di ba't sayang naman (sayang naman) giliw,yeah, yeah yeah






Adlib: G-Am-B-A-D-Bm-A-D-G-A-Bm-D-G-A

Adlib: 
e|-------------3~-----2h3-2-0-2----2----5---5------2h3-2-0----|
B|--------3----3~---3--------------3----5-7-5---3----------3--|
G|------2---2-----------------------------7-------------------|
D|----0-----------------------------------0-0-----------------|
A|--------------------------------2---------------------------|
E|-3~-----------------------------------5---------------------|


e|--2---5--5-----------------10-----12------14-15-14--10-9----|
B|--3-5-5--5---------7-10-------10-----10---15-15-15--10-10---|
G|----6----------7-9------7-----------------------------------|
D|------0--0--------------------------------------------------|
A|-2----------------------------------------------------------|
E|----5-------------------------------------------------------|

e|-------10~--12-10-------------------------------------------|
B|----12------------12s14------14~----------------------------|
G|-12------------------------14~------------------------------|
D|-------------------------14~--------------------------------|
A|------------------------------------------------------------|
E|------------------------------------------------------------|

(repeat Chorus)


 G        A               Bm
Bakit nga ba ako'y iyong pinaasa



all the time

Verse:

Ab
Between the lines we speak
Are you that meet
Will there ever be a chance
Deadlines after lifetimes over
Minutes wouldn't matter when you're

Refrain:

F#           Ab     F#           Ab
Down all the time, down all the time

Verse II:

Ab
Beneath the city lights
I wonder will I ever get the chane
Stop signs green lights over
Minutes wouldn't matter when you're


Refrain:

                             
F#           Ab     F#           Ab
Down all the time, down all the time

Chorus:

  B              F#                      Ab
The tragedy it seems, is pushing up a dream

B             F#
It's easy to believe

                          Ab
That it's worthwhile to achieve
Ab
If you take a chance,if you take a chance
Would you take a chance
If you take a chance, if you

In another life

Verse I:

Bm                 A     G           A
If your world gets lost,Rest assured I am yours
 G          D      G                  A      
Even for a while, will make it last a million miles

Bm            A       G
Don't ever be afraid life
             A                G                     D       
Has ways of keeping you safe, across this endless stars
G                       A
I'll take you home it won't be long

Refrain:

Bm                    A                  G
I'm still not used to life, being spent without you
      A                  Bm                A 
Every breathing moment, I'll be counting the days and nights
G             A        G               A      
Till I'm free to fly,free to fly with you by my side

Verse II:(Verse Chords)
On the fields I chase the answers
Been in front of my face
Tomorrow I can see
I live, I breathe for you and me

Refrain:

Bm               A             Bm     A
I hang on to the sound, as your whole day around
Bm             A         Bm        A
Complete and I leap forward from my sleep
 G           A       G        A        
Never let you go, Never close my eyes
G                A            G                A  
As we touch the ground,you I'll protet with my life

(Verse Chords)
If your world gets lost, rest assured I am yours
I'm still not used to life, being spent without you every
breathing moment, I'll e counting the days and nights
Till I'm free to fly, free to fly with you by me side.

GKT
Intro:
B
Tpos
A-B-C#m-D

 A                                                     C#m-   B
Oh, ba't naman ganyan ang iyong mukha?
A                            C#m-                    B
Humahaba bang listahan ng mga 'di nagagawa?
A                      C#m               B
Patung-patong wala na bang takas
A          C#m  B
Anong oras ba ito magwawakas?

Refrain
C#m
Gising, kain, tulog

Gising, kain, tulog lang! 

Gising, kain, tulog at paikut-ikot lang

Gising, kain, tulog

Gising, kain, tulog lang! 

Gising, kain, tulog at paikut-ikot lang

chorus:
B             C#m
Bad trip naman
A                   E
Ng bigat ng trabaho
B                  C#m
Ng tunay na sikreto
A                  E
Gising kain tulog

transition:
G-A
Ah..hah 2x


Adlib:B-C#m-A-E

(VERSE CHORDS) A-C#m-B
Oh, maghanap ka na ng ibang kilig

Humihina na ang attention span ng 'di nakikinig

Ayoko nang masyadong mag-isip

Kantahan na para di ka mainip! 

Refrain]
C#m
Gising, kain, tulog
Gising, kain, tulog lang! 
Gising, kain, tulog at paikut-ikot lang
Gising, kain, tulog
Gising, kain, tulog lang! 
Gising, kain, tulog at paikut-ikot lang

chorus:
Bad trip naman
Ng bigat ng trabaho
Ng tunay na sikreto
Gising kain tulog

Bad trip naman
Ng bigat ng trabaho
Ng tunay na sikreto
Gising kain tulog2x

Ah.hah..

A tear 

Intro: C#m-A 2x


Verse:

C#m A
How is life on the other side?
C#m A
Hwo is it like to be without the

Refrain:

Abm
Without the usual typical
A
Delusional difficult me
C#m A
How is the life on the other side?
C#m A
I'm not even sure if I still remember how you
C#m
Did you change at all?
A
Did you cut your hair?
C#m
Are you still in touch
A
With that old perfume, you used to wear?

Refrain:

Abm
Like the usual typial, 
A                   F#m
Delusional difficult you
A
Just you.

Chorus:

C#m  A
Speak to me, I don't know what to expexr
C#m  A
Speak to me, I don't have anything left
C#m   A         C#m A
Speak to me, oh speak to me

Verse II: (Do Verse Chords)
I wish I could tell you how I've been
I wish I could tell you everything, everything
Do you even know what you've fighting for?
Cause I an't remember
I can't see it anymore

(Repeat refrain and chorus)

Bridge:

Bm C#m
Pretending I'm fine
Bm C#m
I'm happy can't you see
Bm C#m
Who gives a "what" about html?
You're lying throughyour teeth
Bm C#m
Why won't we come back?
Bm C#m
Why won't we come back

(repeat refrain and Chorus)




Wala kang katulad
Intro-

|------------------------------------------------------------------------|
|------------------------------------------------------------------------|
|-----------------0-0-0-0-0-0-0-0---8-8-8-8-8-8-8--9-9-9-9-9-9-9-9-------|
|-----------------0-0-0-0-0-0-0-0----------------------------------------|
|-3/5-3-3-2h3p2---2-2-2-2-2-2-2-2--/6-6-6-6-6-6-6--7-7-7-7-7-7-7-7-------|
|---------------3-3-3-3-3-3-3-3-3----------------------------------------|


|--------------------------------3~--------------------------------------|
|--------------------------------3~--------------------------------------|
|--------------------------------0~--------------------------------------|
|------------5-------------------0~--------------------------------------|
|--/6-5-3-2----3--2h3------------2~--------------------------------------|
|---------------------3~---------3~--------------------------------------|


Verse-
  G                Eb               G                Eb   
|------------------------------------------------------------------------|
|------------------------------------------------------------------------|
|------------------------------------------------------------------------|
|-5-5-5-5-5-5-5-5--8-8-8-8-8-8-8-8-5-5-5-5-5-5-5-5--8-8-8-8-8-8-8-8------|
|-5-5-5-5-5-5-5-5--6-6-6-6-6-6-6-6-5-5-5-5-5-5-5-5--6-6-6-6-6-6-6-6------|
|-3-3-3-3-3-3-3-3------------------3-3-3-3-3-3-3-3-----------------------|
  E               C#              C
|------------------------------------------------------------------------|
|------------------------------------------------------------------------|
|------------------------------------------------------------------------|
|-9-9-9-9-9-9-9-9-6-6-6-6-6-6-6-6-5-5-5-5-5-5-5-5-5-5-5-5-5-5-5-5--------|
|-7-7-7-7-7-7-7-7-4-4-4-4-4-4-4-4-3-3-3-3-3-3-3-3-3-3-3-3-3-3-3-3--------|
|------------------------------------------------------------------------|

Do verse
Chorus-
  G                Eb               E                Eb  
|------------------------------------------------------------------------|
|------------------------------------------------------------------------|
|------------------------------------------------------------------------|
|-5-5-5-5-5-5-5-5--8-8-8-8-8-8-8-8--9-9-9-9-9-9-9-9--8-8-8-8-8-8-8-8-----|
|-5-5-5-5-5-5-5-5--6-6-6-6-6-6-6-6--7-7-7-7-7-7-7-7--6-6-6-6-6-6-6-6-----|
|-3-3-3-3-3-3-3-3--------------------------------------------------------|
  D                C#               C
|------------------------------------------------------------------------|
|------------------------------------------------------------------------|
|------------------------------------------------------------------------|
|-7-7-7-7-7-7-7-7--6-6-6-6-6-6-6-6--5-5-5-5-5-5-5-5-5-5-5-5-5-5-5-5------|
|-5-5-5-5-5-5-5-5--4-4-4-4-4-4-4-4--3-3-3-3-3-3-3-3-3-3-3-3-3-3-3-3------|
|------------------------------------------------------------------------|

Do Verse and Chorus



Bridge
  Ab              F                Ab              Bb  
|------------------------------------------------------12^(13)s----------|
|------------------------------------------------------------------------|
|------------------------------------------------------------------------|
|-6-6-6-6-6-6-6-6-3-3-3-3-3-3-3-3-6-6-6-6-6-6-6-6--8~--------------------|
|-6-6-6-6-6-6-6-6-3-3-3-3-3-3-3-3-6-6-6-6-6-6-6-6--8~--------------------|
|-4-4-4-4-4-4-4-4-1-1-1-1-1-1-1-1-4-4-4-4-4-4-4-4--6~--------------------|
  Dm              Bb              Dm
|----------------------------------------------------|
|----------------------------------------------------|
|-7-7-7-7-7-7-7-7-3-3-3-3-3-3-3-3-7-7-7-7-7-7-7-7----|
|-7-7-7-7-7-7-7-7-3-3-3-3-3-3-3-3-7-7-7-7-7-7-7-7----|
|-5-5-5-5-5-5-5-5-1-1-1-1-1-1-1-1-5-5-5-5-5-5-5-5----|
|----------------------------------------------------|
  Eb               C              Bb            F
|-------------------------------------------------------------|
|-------------------------------------------------------------|
|-8-8-8-8-8-8-8-8-5-5-5-5-5-5-5-5-3-3-3-3-3-3-----------------|
|-8-8-8-8-8-8-8-8-5-5-5-5-5-5-5-5-3-3-3-3-3-3-3-3-3-3-3-3-3---|
|-6-6-6-6-6-6-6-6-3-3-3-3-3-3-3-3-1-1-1-1-1-1-3-3-3-3-3-3-3---|
|---------------------------------------------1-1-1-1-1-1-1---|
  Eb               F#
|-------------------------------------|
|-------------------------------------|
|-8-8-8-8-8-8-8-8---------------------|
|-8-8-8-8-8-8-8-8--4-4-4-4-4-4-4-4~---|
|-6-6-6-6-6-6-6-6--4-4-4-4-4-4-4-4~---|
|------------------2-2-2-2-2-2-2-2~---|


Solo-
1.
GtrI
|------------------13~---------------------------------------------------|
|-10h11-13~--10h11-----10h11--13-----------------------------------------|
|------------------------------------------------------------------------|
|------------------------------------------------------------------------|
|------------------------------------------------------------------------|
|------------------------------------------------------------------------|
GtrII
 F#
|------------------------------------------------------------------------|
|------------------------------------------------------------------------|
|------------------------------------5/7\5-5~----------------------------|
|------------------------------------------------------------------------|
|------------------------------------3/5\3-3~----------------------------|
|------------------------------------------------------------------------|
2.
GtrI
|-------------------------------------------------------------|
|-10^(12)10---------------10-8---13^(15)13-12^(13)12----------|
|-----------7~-----7-8-10-----------------------------7^(8)7--|
|-------------------------------------------------------------|
|-------------------------------------------------------------|
|-------------------------------------------------------------|

|-------------------------------------------------------------|
|----------10-8---13^(15)13---/12----15^(17)-^(17)-15-12------|
|-/7-8-10-----------------------------------------------------|
|-------------------------------------------------------------|
|-------------------------------------------------------------|
|-------------------------------------------------------------|

|--14^(15)14--12-12~------14^(15)14--12--17~--15-15~----------|
|--------------------12---------------------------------------|
|-------------------------------------------------------------|
|-------------------------------------------------------------|
|-------------------------------------------------------------|
|-------------------------------------------------------------|

|--15-17^(18)17-15--17-17^(18)17-17--18--15~------------------|
|-------------------------------------------------------------|
|-------------------------------------------------------------|
|-------------------------------------------------------------|
|-------------------------------------------------------------|
|-------------------------------------------------------------|
GtrII
|-------------------------------------------------------------|
|-------------------------------------------------------------|
|-------------------------------------------------------------|
|-7^(9)7------------------7-5----10^(12)10-9^(10)9------------|
|-----------5~-----5-6-8------------------------------5^(6)5--|
|-------------------------------------------------------------|

|-------------------------------------------------------------|
|-------------------------------------------------------------|
|-------------------------------------------------------------|
|----------7--5---10^(12)10---/9-----12^(14)-^(14)-12-9-------|
|-/5-6-8------------------------------------------------------|
|-------------------------------------------------------------|

|-------------------------------------------------------------|
|-------------------------------------------------------------|
|--11^(12)11--9---9~------11^(12)11--9---14~--12-12~----------|
|--------------------9----------------------------------------|
|-------------------------------------------------------------|
|-------------------------------------------------------------|

|-------------------------------------------------------------|
|-------------------------------------------------------------|
|--12-14^(15)14-12--14-14^(15)14-14--15--12~------------------|
|-------------------------------------------------------------|
|-------------------------------------------------------------|
|-------------------------------------------------------------|
Coda-
GtrI
  G            Eb        E                Eb
|-------------------------------------------------|
|-------------------------------------------------|
|-------------------------------------------------|
|-5~----------------------------------------------|
|-5~---------5-6~-6-----2-s7~-------7-9-10-6~-----|
|-3~-----3-5--------------------------------------|
                 D          C#
|-------------------------------------------------|
|-------------------------------------------------|
|-------------------------------------------------|
|-------------------------------------------------|
|--6-5-3-6/5-----5-4~---4~------------------------|
|------------3------------------------------------|


GtrI
  C
|--------------------------------------------|
|------------------------------12-12-13-13---|
|--55-77-99-11-11-12-12-14-14----------------|
|--------------------------------------------|
|--------------------------------------------|
|--------------------------------------------|

GtrII
   C
|------------------------------------|
|------------------------------------|
|--5-5-5-5-5-5-5-5-5-5-5-5-5-5-5-5---|
|--5-5-5-5-5-5-5-5-5-5-5-5-5-5-5-5---|
|--3-3-3-3-3-3-3-3-3-3-3-3-3-3-3-3---|
|------------------------------------|




Outro
GtrI
|-121212-------------------------------------------------|
|---------1515151515-1212121212121212-1717171717171717---|
|--------------------------------------------------------|
|--------------------------------------------------------|
|--------------------------------------------------------|
|--------------------------------------------------------|

|-1515151515151515---------------------------------------|
|------------------171717-1515151515-1414141414141414----|
|--------------------------------------------------------|
|--------------------------------------------------------|
|--------------------------------------------------------|
|--------------------------------------------------------|

|--------------------------------------------------------|
|-13-13
Добавлено: 28.10.2013
Другие материалы по этой песне:
  • Аккорды и текст

Страница создана 28.10.2013
http://primanota.ru/sponge-cola/sponge-cola-chords.htm
Привет, Гость.
Предлагаем пройти революционный курс по гитаре.
Подарок от PrimaNota.Ru, забирай!