PrimaNota.ru - самый крупный в мире бесплатный архив песенных текстов, аккордов, табулатур и нот


Sponge Cola - Pag-Ibig Dangwa Ost - аккорды и текст, видео

Регистрация Запомнить меня
Войти через:  Facebook Google Twitter Vk Yandex Mail.ru

Sponge Cola - Pag-Ibig Dangwa Ost - аккорды и текст, видео

Печатать
Просмотров: 64
Pag-Ibig Dangwa Ost
Sponge Cola
-------------------------------------------------------------------------------
                             PAG-IBIG (DANGWA OST) - SPONGECOLA
-------------------------------------------------------------------------------
Tabbed by:KENGKAROT

Tuning:STANDARD


***JUST FIGURE OUT THE STRUMMING

USE THESE CHORDS:

                                                    LAST PART (INSTRUMENTAL)
e|--3----3----3-----3------3----------3-------------------------3----2-----|
B|--3----3----3-----3------3----------3-------------------------3----3-----|
G|--0----0----0-----0------2----------2-------------------------0----0-----|
D|--0----X----X-----2------0----------0-------------------------0----0-----|
A|--X----2----3-----2------0----------X-------------------------X----X-----|
E|--3----X----X-----0------2----------X-------------------------3----3-----|
  G5    G/B  Csus2  Em7  Gsus2/F#    Dsus                       G5  Dadd11/G

LYRICS WITH CHORDS

        G5      G/B      Csus2
Gumaganda       ang paligid

Dsus        Gsus     G/B       Csus2
Kung bawat tao ay   puno ng pag-ibig

Dsus G5      G/B     Csus2
Napapawi    ang pighati,

Dsus  Em7  Gsus2/F#    Csus2
Masilayan lang ang   iyong ngiti

Em7         Gsus2/F#    Csus2
O kay gandang       isipin


And isang mundong puno ng pag-ibig


G5 G/B Csus2 Dsus (REPEAT 4 TIMES)

         G5                  Csus2
Parang isang    bulaklak na kay ganda

         Em7      Gsus2/F#     
Na inabot mo sa iyong sinisinta

       G5                 Csus2
Ang iyong nilaan na pagmamahal

     Em7                Gsus2/F#
Ang dulot nito ay tunay na ligaya

     Em7          Csus2
Pag-ibig nga ang susi

    Em7           Gsus2/F#
Nararapat lang ibahagi...


        G5      G/B      Csus2
Gumaganda       ang paligid

Dsus        Gsus     G/B       Csus2
Kung bawat tao ay   puno ng pag-ibig

Dsus G5      G/B     Csus2
Napapawi    ang pighati,

Dsus  Em7  Gsus2/F#    Csus2
Masilayan lang ang   iyong ngiti

Em7         Gsus2/F#    Csus2
O kay gandang       isipin


And isang mundong puno ng pag-ibig


G5 G/B Csus2 Dsus (REPEAT 4 TIMES)


YUNG LAST PART NA INSTRUMENTAL LANG, ETO YUNG CHORDS:

G5 Dadd11/G (Repeat 4 TIMES THEN END WITH G5)

************************************
Добавлено: 26.03.2016
Вам также может быть интересно:
Другие материалы по этой песне:
  • Аккорды и текст

Страница создана 26.03.2016
http://primanota.ru/sponge-cola/pag-ibig-dangwa-ost-chords.htm
Привет, Гость.
Предлагаем пройти революционный курс по гитаре.
Подарок от PrimaNota.Ru, забирай!