PrimaNota.ru - самый крупный в мире бесплатный архив песенных текстов, аккордов, табулатур и нот


Sponge Cola - Kay Tagal Kitang Hinintay - аккорды и текст, таба, видео

Регистрация Запомнить меня
Войти через:  Facebook Google Twitter Vk Yandex Mail.ru

Sponge Cola - Kay Tagal Kitang Hinintay - аккорды и текст, таба, видео

Печатать
Просмотров: 395
Kay Tagal Kitang Hinintay
Sponge Cola
Song    :       Kay Tagal Kitang Hinintay
Artist  :       Sponge Cola
Tabber  :       Matthew (Shanks^_^)
Tuning  :       Standard (E A D G B E)
Legend  :

s or \  =       Slide to higher
h      =       hammer
+       =       harmonics
x       =       dead string





Chords Used:
   E   E*  E5 C#m C#m A/F#m A   A5  B5  B
e|-0-|-0-|-0-|0/7|-0-||--0--|-0-|-0-|-0-|-0-|
B|-0-|-5-|-0-|-5-|-0-||--10-|-0-|-5-|-4-|-7-|
G|-1-|-4-|-9-|-4-|-9-||--9--|-2-|-6-|-4-|-8-|
D|-2-|-6-|-9-|-6-|11-||--11-|-2-|-7-|-2-|-9-|
A|-2-|-7-|-7-|-4-|11-||--12-|-0-|-7-|-0-|-9-|
E|-0-|-0-|-0-|-0-|-0-||--0--|-0-|-0-|-x-|-0-|



Verse 1:

   E*             C#m              A/F#m              B
e|-0-0---0--0--0---7---7---7---7-------0------0------0-----0--------0---0---0---0----|
B|----5---5--5--5---5---5---5---5-5-10---10-----10----10----10-------7---7---7---7---|
G|-----4---4--4--4---4---4---4---4---------9------9-----9-----9-------8---8---8---8--|rep x4
D|---6----------------6---6---6---6-11------11-----11----11----11------9---9---9---9-|
A|-7-----7--7--7---4---4---4---4-------12-----12-----12---12----12--9---9---9---9---9|
E|-----------------------------------------------------------------------------------|

E*
Hawakan mo ang aking kamay
C#m
at tayong dalawa'y
A/F#m          B
maghahasik ng kaligayahan


E*                      C#m
Bitawan mong unang salita
        A/F#m              B
Ako ay handa ng tumapak sa lupa


E*                      C#m
Tapos na ang paghihintay
         A/F#m
Nandito kana
                         B
O siya'y naiinip magdahan-dahan


E*                    C#m
Sinasamsam bawat gunita
           A/F#m
Na para bang tayo'y
        B
Di na tatanda




Bridge 1:

        C#m                     B or B5
e|-------7----7----7----7--------0----0----0----0---0--|
B|--------5----5----5----5--------7----7----7----7--7--|
G|---------4----4----4----4--------8----8----8----8-8--|
D|----------6----6----6----6--------9----9----9----99--|rep. x2
A|-------4---4----4----4----4----9---9----9----9----9--|
E|-----------------------------------------------------|



   C#m       B or B5
Ligaya mo'y sa huli
   C#m             B or B5(hold)
Sambit ng iyong mga labi


Chorus 1:
    E*       C#m        A2F#m or A      B5 or B
e|--0--0--0---0-0---0----0---0----0------0--0--0------|
B|------5--5---5-5---5----12--12----------7--7--7-----|
G|----4--4------4-4---4-----9---9----------8--8--8----|
D|---6---------6---6------11-----11----------9--------|(rep. x3 hanggang humming ni yael^)
A|--7-----7---4----------12--------------9-----9------|
E|----------------------------------------------------|

E*                C#m
Parang isang panaginip
    A             B
Ang muling mapagbigyan



E*              C#m
Tayo'y muling magkasama
   A           C#m
Ang dati ay baliwala
^
whooooooooooooooooooo


Verse 2:
E                       C#m
Nagkita rin ang ating landas
      A
wala ng iba
              B
Akong hinihiling kundi
      E
ika'y pagmasdan
          C#m
mundo ko ay yong niyanig
         A                B
o anung ligaya ika'y sumama sa akin


Bridge 2:
   C#m          B5
Nais ko lang humimbing
     C#m         B5
Sa saliw'at ng iyong tinig


Chorus 2:
(REPEAT CHORDS 1 TWO TIMES;note:strum)
Parang isang panaginip
Ang muling mapagbigyan
Tayo'y muling magkasama
Ang dati ay baliwala

Panatag ang kalooban ko at ika'y
Kapiling ko na
Oh kay tagal kitang hinintay (2x)


Interlude: (do chords in chorus)


Lyrics:

Hawakan mo ang aking kamay at tayong dalawa'y
Maghahasik ng kaligayahan
Bitawan mong unang salita
Ako ay handa ng tumapak sa lupa

Tapos na ang paghihintay nandito kana
O sya'y naiinip ng dahandahan
Sinasamsam bawat gunita
Na para bang tayo'y di na tatanda

Ligaya ngayo'y sa huli
Sambit ng iyong mga labi

Chorus

Parang isang panaginip
Ang muling mapagbigyan
Tayo'y muling magkasama
Ang dati ay baliwala

Interlude

Verse

Nagkita rin ang ating landas wala ng iba
Akong hinihiling kundi ika'y pagmasdan
mundo ko ay yong niyanig
o anung ligaya ika'y sumama sa akin

Nais ko lang humimbing
Sa saliw'at ng iyong tinig

Chorus

Parang isang panaginip
Ang muling mapagbigyan
Tayo'y muling magkasama
Ang dati ay baliwala

Panatag ang kalooban ko at ika'y
Kapiling ko na
Oh kay tagal kitang hinintay (2x)

Interlude

Ligaya ngayo'y nasa huli
Sambit ng iyong mga labi

Chorus

Parang isang panaginip
Ang muling mapagbigyan
Tayo'y muling magkasama
Ang dati ay baliwala
Ang dati ay baliwala

Parang isang panaginip
Ang muling mapagbigyan
Tayo'y muling magkasama
Ang dati ay baliwala

Panatag ang kalooban ko at
Ika'y kapaling ko na
Oh kay tagal kitang hinintay (2x)



Добавлено: 16.07.2012
Другие материалы по этой песне:

Страница создана 02.03.2012
http://primanota.ru/sponge-cola/kay-tagal-kitang-hinintay-chords.htm
Привет, Гость.
Предлагаем пройти революционный курс по гитаре.
Подарок от PrimaNota.Ru, забирай!