PrimaNota.ru - самый крупный в мире бесплатный архив песенных текстов, аккордов, табулатур и нот


Spocks Beard - Wind At My Back - аккорды и текст, видео

Регистрация Запомнить меня
Войти через:  Facebook Google Twitter Vk Yandex Mail.ru

Spocks Beard - Wind At My Back - аккорды и текст, видео

Печатать
Просмотров: 99
Wind At My Back
Spocks Beard
Based on the tab by Matt Carlin
This version completed by Erik Schick

Tuned down one half step
For simplicity, chords are written as if played in standard tuning

(#) - signifies alternate note

Verse:

  Cadd9 Gm   F/A Csus2 G    F/A
Eb-0----3----1----3----3----1--|
Bb-3----3----1----1----0----1--|
Gb-0----0----2----0----0----2--|
Db-2----0----3----0----0----3--|
Ab-3----1----0----3----2----0--|
Eb-x----x----x----x----x----x--|


Prechorus:

   F   C
Eb-1---0--|
Bb-1---1--|
Gb-2---0--|
Db-3---2--|
Ab-3---3--|
Eb-x---x--|


Chorus:

   Dsus4 D   Dsus4 D   Cadd9 G   Asus4 A   x2  G    Em7  Dsus2
Eb--3----2----3----2----3----3----0----0----|--3----3----0--|
Bb--3----3----3----3----3----3----3----2----|--3----3----3--|
Gb--2----2----2----2----0----0----2----2----|--0----0----2--|
Db--0----0----0----0----2----0----2----2----|--0----2----0--|
Ab--x----x----x----x----3----2----0----0----|--2----2----x--|
Eb--x----x----x----x----x----x----x----x----|--3----0----x--|


Bridge:

   Em  A   G   D
Eb-0---5---3---2--|
Bb-0---2---3---3--|
Gb-0---2---0---2--|
Db-2---2---0---0--|
Ab-2---0---2---x--|
Eb-0---0---x---x--|


Final Chorus:

   Esus4 E   Esus4 E   Dadd9 A   Bsus4 B   x4  A    F#m  Eadd9
Eb--0----0----0----0----x----x----2----2----|--0(5)-2(5)-2--|
Bb--0----0----0----0----5----5----5----4----|--2----2----0--|
Gb--2----1----2----1----2----2----4----4----|--2----2----1--|
Db--2----2----2----2----4----2----4----4----|--2----4----2--|
Ab--2----2----2----2----5----4----2----2----|--0----4----2--|
Eb--0----0----0----0----x----x----x----x----|--0----x----0--|



Lyrics with chords: (written as if played in standard tuning)

Verse:
Cadd9
How can you be
                      Gm
Like a sky stretched out before me
                   F/A
And the world is turning your way
                 Csus2         G  F/A
Even darkness is better this way

Cadd9
Can it be true
                    Gm
That it all comes rushing from you
            F/A
When my resistance is gone
                         Csus2       G
And there's nothing that I can lean on

Prechorus:
F C

Chorus:
Dsus4         D           Dsus4
You are the wind at my back
       D         Cadd9
You give what I lack
             G         Asus4
You're the jewel in my hand
             A          Dsus4
You're like rain on dry land

             D          Dsus4
You're the focus, the beam
          D         Cadd9
You're reality's dream
             G         Asus4
You're the blue in my black
             A        G   Em7  Dsus2
You're the wind at my back

Verse:
Cadd9
All of the above
               Gm
I'll have the lot for my love
                F/A
And as we're becoming somehow
                      Csus2      G   F/A
As we're changing the future to now

  Cadd9
I just want to live
                    Gm
In the place that you have to give
              F/A
I'll let the heat beat me down
           Csus2         G
Until the water comes down


Prechorus
Chorus


Bridge:
Em  A   G   D

Final chorus:
Esus4        E          Esus4
You are the wind at my back
      E           Dadd9
You give what I lack
              A          Bsus4
You're the jewel in my hand
              B       Esus4
You're like rain on dry land

        E               Esus4
And my soul has been kissed
         E          Dadd9
Just because you exist
              A             Bsus4
You're the dream that's a fact
             B       Esus4
You're the wind at my back

             E           Esus4
You're the wish that I make
              E           Dadd9
You're the prize I might take
              A           Bsus4
You're the gold that is free
             B       Esus4
You're the groom on one knee

             E          Esus4
You're the focus, the beam
          E         Dadd9
You're reality's dream
             A          Bsus4
You're the blue in my black
             B        A   F#m   Eadd9
You're the wind at my back


Добавлено: 12.11.2015
Другие материалы по этой песне:
  • Аккорды и текст

Страница создана 07.03.2012
http://primanota.ru/spocks-beard/wind-at-my-back-chords.htm
Привет, Гость.
Предлагаем пройти революционный курс по гитаре.
Подарок от PrimaNota.Ru, забирай!