PrimaNota.ru - самый крупный в мире бесплатный архив песенных текстов, аккордов, табулатур и нот


Spocks Beard - The Light - текст песни, бас-таба, видео

Регистрация Запомнить меня
Войти через:  Facebook Google Twitter Vk Yandex Mail.ru

Spocks Beard - The Light - текст песни, бас-таба, видео

Печатать
Просмотров: 117
Уроки эстрадного вокала в Санкт-Петербурге
Авторы музыки: Neal Morse
Авторы текста: Neal Morse
Spock's Beard-The Light
The Light
Bass Tab

0:00 - 0:48 Only piano

0:48-0:52 Intro

G-----------8---------------15
D-------8--8----------10--12---
A-----8--10--------10---12----
E-8-10--------10-12-----------

0:52-1:06

G----------88-7-77-6-66-           -15-14-13-12-11
D------8--8-------------- keyboard ---------------
A-----8-10----------------         ---------------
E-8-10-------------------          ---------------

G-----------8---------------15-
D-------8--8----------10--12---
A-----8--10--------10---12-----
E-8-10--------10-12------------

G----------88-7-77-6-66--          -15-14-13-12-11
D------8--8-------------- keyboard ---------------
A-----8-10----------------         ---------------
E-8-10-------------------          ---------------

1:07-1:34 repeat this figure, Figure 1

G-----------10
D------8---8--
A-----8--10---
E-8-10--------

1:25-1:27, with this variation in between

G-----------------
D-----8-9-10-9-8--
A----8----------10
E-8-10------------

1:34-1:57

G------------------------
D---------10-10----------  
A---------------(2X)-----
E-8-8-8-8------------1---               

Repeat this until 1:55. From that point you hit the 8th fret on the E-string simultaneously 
when the keyboard hits, when you hear the higher bass, it is the 10th fret on the D-string. 


1:58-2:10

G-------------------------------------
D------8------------------------------
A-----8-10(hold this note)-10-10-10-10 repeat 2x
E-8-10--------------------------------

2:10-2:24 

G-------------------------------------------
D----------10-------------------------------
A-------10----12(hold this note)-12-12-12-12 repeat 2x
E-10-12-------------------------------------

2:24-2:29 No bass
2:29-3:12

G-----------------------------------
D-----------------------------------
A-----------------------------------
E-/12-5----5----/12-5----/7-0--5-5-5

3:14-3:28

G-----------------------------
D-------------------------4---
A---------------------2-4--4-2
E-7-8-9-7-5-4---4---2---------

3:28-3:43

G-----                 --4--      -----                    --------                
D-----                 -4---      -----                    -----2-4
A-7--- repeat 4x then: ----- then:-7--repeat 4x ending on: -2-4----
E----                  -----      -----                    --------  

3:43-3:53

G----------------------
D-----------------2-4-2
A-3-5-7-7-7-7-2-4------
E----------------------

3:53-4:20

G-------------9-8-----------------------------------------
D--6-7-9-6-7-9----6-7-9-7-6-4-2-2--------------7-9---7-9--
A-7-----7--------7---------------7-7-9-7-77-9-7----7-----7
E---------------------------------------------------------

4:20-4:40

G--------------------------------
D--------7-9---------------------
A-7-7-7-7---7-7-7-7-4-6-7-9-3-5-7
E--------------------------------

4:40-4:46

G------------------
D------------------
A-7-7-7-7-4-6-7-9-7
E------------------

4:46-5:10
G--------------------------------------------------------------------
D--------------------------------------------------------------------
A---------------------------7-9-8------9-11-10--8--------------------
E-5-5-5-5-5--7-7-7-7-7--7-9-------9-11-------------------------------

5:10-5:40 No bass
5:40-5:50
G-----------------------------------
D-----------------------------------
A-----------------7-9-8------9-11-10
E-5-5-5-5-5-5--7-9-------9-11-------

5:50-6:06 No bass
6:06-6:08 Repeat of intro
6:20-7:13 No bass
7:13-7:36 Figure 2 keep repeating, listen to the song 

G--------------------------------------------------------------------
D--------------------------------------------------------------------
A-7-7-7-7-10-10-10-10-9-9-9-9-7--------------------------------------
E--------------------------------------------------------------------

7:36-7:47

G--------------------------------------------------------------------
D--------------------------------------------------------------------
A-10-10-9-9----------------7-7-7-7----------------7------------------ 
E------------7-9-10-7-9-10----------7-9-10-7-9-10--------------------

7:47-8:14 Figure 2 again
8:14-8:30 Figure 2 again twice (but then an octave lower), ending on the 5th fret on the A string

G--------------------------------------------------------------------
D---2--2--5---5---4---4----------------------------------------------
A------------------------------5-5-5-5------------------------------- 
E-0--0--3---3---2---2------------------------------------------------

8:30-8:41
G--------------------------9-9-9-9------------7-9-9-9---------17-16--
D--------------------------------------7-9-10---------14-16-17-------
A-10-10-9-9--------------7---------9-10------------------------------ 
E----------7-9-10-7-9-10---------------------------------------------

G-17-19--------------------------------------------------------------
D--------------------------------------------------------------------
A-------------------------------------------------------------------- 
E--------------------------------------------------------------------

8:41-9:05
THE LIGHT!!!!  (Just A and D)

G--------------------------------------------------------------------
D--------------------------------------------------------------------
A-----5-5------------------------------------------------------------ 
E-5-5----------------------------------------------------------------

9:05-10:02 no bass, only piano
10:02-10:19 really cool bass part

First play this pattern twice
G--------------------------------------------------------------------
D-----7------9------7-6-4-2------------------------------------------
A---7--7---7--7---7--------5-4-2-------------------------------------
E-5------5------5----------------------------------------------------

Then switch key
G--------------------------------------------------------------------
D-----9------11-----9-8-6------------9------11-----------------------
A---9--9---9---9--9------9-7-6-----9--9---9--------------------------
E-7------7------7--------------7-7------7----------------------------

10:19-10:22
G------9-12-11------11-14-13-----------------------------------------
D-9-11--------11-12--------------------------------------------------
A-------------------------------------------------------------------- 
E--------------------------------------------------------------------

10:22-10:41 Just play the 4th fret on the A string, listen to the song for timing
G--------------------------------------------------------------------
D--------------------------------------------------------------------
A-4------------------------------------------------------------------ 
E--------------------------------------------------------------------

10:41-10:53
G---7--------------------------------7-------------------------------
D------7----------5------4--5-6h7-------7------4---------------------
A-5---------5-5-5--5-5-5--5--5-----5-------------4-------------------
E----5--3-3---------------------------5--3-3-2-----4-2---------------

10:53-11:10 listen to the song for when to play the notes
G--------------------------------------------------------------------
D--------------------------------------------------------------------
A-------------------------------------------------------------------- 
E-0-0-0-0--7-7-7-7-0-0-0-0-7-7-7-7-8-8-8-8-10-3-3-5-5-7--------------

11:10-11:30
G--------------------------------------------------------------------
D--------------------------------------------------------------------
A-----5-3-2-0-5-3-2-0-0-0-0------------------------------------------ 
E-7-7----------------------------------------------------------------

11:30-11:49 Figure 3 repeat until next pattern
G--------------------------------------------------------------------
D---7-7--5-5---3-3---2-2---------------------------------------------
A-5----3-----1-----0-------------------------------------------------
E--------------------------------------------------------------------

11:49-12:46 Figure 4
G--------------------------------------------------------------------
D---5-5------7-7-----------------------------------------------------
A------5-5------7-7-3-5---------------------------------------------- 
E-3--------5---------------------------------------------------------

Repeat the two figures above until 12:46, listen to the song for when to play which figure. 

12:47-13:25 repeat this figure...it's not perfect but it comes close
G-------------------------------------------------------7------------
D--------8------------10------------8-------8-10-7-7-10--------------
A------8--10-------10----12-------8--10-8-10------------------------- 
E-8-10-------10-12-----------8-10------------------------------------

13:25-13:45 again, listen to the song for timing on these notes
G--------------------------------------------------------------------
D-12--9--6--3--2-----------------------------------------------------
A-----------------------------7-7-7-7--------------------------------
E---------------0-0-0-0-0-0-0----------------------------------------

13:45-14:14 
THE CATFISH MAN
Repeat the 5th fret on the E string
G--------------------------------------------------------------------
D--------------------------------------------------------------------
A-------------------------------------------------------------------- 
E-5-------------------------------------------------------------------

14:14-14:36 reprise
G--------------------------------------------------------------------
D--------------------------------------------------------------------
A-7-5-4-2-5-7-5-4-3-5------------------------------------------------ 
E---------------------3-5--------------------------------------------

14:36-15:25 only piano, ending of the epic
Добавлено: 12.11.2015
Другие материалы по этой песне:
  • Аккорды и текст

Страница создана 28.04.2012
http://primanota.ru/spocks-beard/the-light-chords.htm
Привет, Гость.
Предлагаем пройти революционный курс по гитаре.
Подарок от PrimaNota.Ru, забирай!