PrimaNota.ru - самый крупный в мире бесплатный архив песенных текстов, аккордов, табулатур и нот


Split Enz - Titus - аккорды и текст, таба, видео

Регистрация Запомнить меня
Войти через:  Facebook Google Twitter Vk Yandex Mail.ru

Split Enz - Titus - аккорды и текст, таба, видео

Печатать
Просмотров: 162
Авторы: Phil Judd

Titus
Split Enz
		   SPLIT ENZ - Titus
(from the Second Thoughts album)
--------------------------------
Lyrics: Phil Judd
Music: Mike Chunn, Noel Crombie, Emlyn Crowther, Tim Finn,
Robert Gillies, Phil Judd, Eddie Rayner.

figured out by James Orme and Jeremy Orme at the expense of
a whole night.

(capo 6)


Riff 1

E|-13--X--X--X--X--|--11--X--X--X--X--|---9--X--X--X--X--|
B|-14--X--X--X--X--|--11--X--X--X--X--|---9--X--X--X--X--|
G|-13--X--X--X--X--|--12--X--X--X--X--|--10--X--X--X--X--|

E|---8--X--X--X--X--|---6------|
B|---9--X--X--X--X--|---6------|
G|---8--X--X--X--X--|---8------|


Riff 2

E|--9--X--X--X--X-|-8--X--X--6--|-11--X--X--X--X--X--X--X--X--X--X--X-|
G|--9--X--X--X--X-|-9--X--X--6--|-11--X--X--X--X--X--X--X--X--X--X--X-|
B|-10--X--X--X--X-|-8--X--X--8--|-12--X--X--X--X--X--X--X--X--X--X--X-|



Intro:

Play riff 1 twice.

E|-20--X--X--X--X--|--18--X--X--X--X--|--16--X--X--X--X--|
B|-21--X--X--X--X--|--18--X--X--X--X--|--16--X--X--X--X--|
G|-21--X--X--X--X--|--19--X--X--X--X--|--17--X--X--X--X--|

E|-15--X--X--|--16-18-16-15-13-|-11--X-18-11--|
B|-16--X--X--|--14-16-14-16-14-|-11--X-18-11--|
G|-15--X--X--|--15-17-15-17-13-|-12--X-19-12--|

E|--9--X--X--X--8--6--|--11--X--X--X--X--X--X--X--X--X--|
B|--9--X--X--X--9--6--|--11--X--X--X--X--X--X--X--X--X--|
G|-10--X--X--X--8--8--|--12--X--X--X--X--X--X--X--X--X--|

E|-13--X-18-11--|--9--X--X--X--8--6--|
B|-14--X-18-11--|--9--X--X--X--9--6--|
G|-13--X-19-12--|-10--X--X--X--8--8--|

E|--11--X--X--X--X--X--X--X--X--X--|--13--X-18-11--|
B|--11--X--X--X--X--X--X--X--X--X--|--14--X-18-11--|
G|--12--X--X--X--X--X--X--X--X--X--|--13--X-19-12--|

E|--9--X--X--X--8--6--|-11--X--X--X--X--X--X--X--X--|
G|--9--X--X--X--9--6--|-11--X--X--X--X--X--X--X--X--|
B|-10--X--X--X--6--8--|-12--X--X--X--X--X--X--X--X--|



First Verse:

Play riff 1 twice.

1. I found my - self in silver dreams
2. Talking in my sleep to pawns and queens


E|--20--X--X--X--X--|--18--X--X--X--X--|-16--X--X--X--X--|
G|--21--X--X--X--X--|--18--X--X--X--X--|-16--X--X--X--X--|
B|--20--X--X--X--X--|--19--X--X--X--X--|-17--X--X--X--X--|

                Outspoken   words  you  know    they just

E|--15--X--X--|--16-18-16-15-13-|
G|--16--X--X--|--14-16-14-16-14-|
B|--15--X--X--|--15-17-15-15-13-|

    don't mean the same thing

Play riff 2 twice

1. Somebody must be kiddin' me
2. Somebody must be lying to me

E|-16--X--X--X--X--X--X--X--X--X--|--20--X--X--X--X--|--16--X--X--8--|
G|-16--X--X--X--X--X--X--X--X--X--|--21--X--X--X--X--|--16--X--X--9--|
B|-17--X--X--X--X--X--X--X--X--X--|--20--X--X--X--X--|--17--X--X--8--|

        And please don't ask me which is red and which is black

Play riff 2 twice

1. And when are you coming back to me babe?
2. And when are you coming back to me babe?


Second Verse:

Play riff 1 twice

1. I saw my - self in checkered lands
2. I even dreamt I was the knight in command

E|--20--X--X--X--X--|--18--X--X--X--X--|--16--X--X--X--X--|
G|--21--X--X--X--X--|--18--X--X--X--X--|--16--X--X--X--X--|
B|--20--X--X--X--X--|--19--X--X--X--X--|--17--X--X--X--X--|

      The   bishop    screamed               "Don't  horse

E|--15--X--X--X--X--|--16-18-16-15-13--|
G|--16--X--X--X--X--|--14-16-14-16-14--|
B|--15--X--X--X--X--|--15-17-15-15-13--|

    around     boy"

Play riff 2 twice

1. Somebody must be kiddin' me
2. Somebody must be lying to me

E|--16--X--X--X--X--X--X--X--X--X--|--20--X--X--X--X--|--16--X--X--8--|
G|--16--X--X--X--X--X--X--X--X--X--|--21--X--X--X--X--|--16--X--X--9--|
B|--17--X--X--X--X--X--X--X--X--X--|--20--X--X--X--X--|--17--X--X--8--|

       And please don't tell me        I'm losing my way

Play riff 2 twice

   1. You promised me everything now  - didn't you babe?
   2. You promised me everything now  - didn't you babe?


Ending:

Play riff 1 twice

E|--20--X--X--X--X--|--18--X--X--X--X--|--16--X--X--X--X--|
G|--21--X--X--X--X--|--18--X--X--X--X--|--16--X--X--X--X--|
B|--20--X--X--X--X--|--19--X--X--X--X--|--17--X--X--X--X--|

E|-15--X--X--X--X--X--X--X--X--X--X-|
G|-16--X--X--X--X--X--X--X--X--X--X-|
B|-15--X--X--X--X--X--X--X--X--X--X-|

Play riff 2 twice.


Comments and suggestions welcome, criticism can also be sent
to pigeonpie@isaac.globalnet.co.uk     
Добавлено: 01.11.2013
Вам также может быть интересно:
Другие материалы по этой песне:
  • Аккорды и текст

Страница создана 28.02.2012
http://primanota.ru/split-enz/titus-chords.htm
Привет, Гость.
Предлагаем пройти революционный курс по гитаре.
Подарок от PrimaNota.Ru, забирай!