PrimaNota.ru - самый крупный в мире бесплатный архив песенных текстов, аккордов, табулатур и нот


Split Enz - Hello Sandy Allen - аккорды и текст, видео

Регистрация Запомнить меня
Войти через:  Facebook Google Twitter Vk Yandex Mail.ru

Split Enz - Hello Sandy Allen - аккорды и текст, видео

Печатать
Просмотров: 163
Уроки эстрадного вокала в Санкт-Петербурге
Авторы музыки: Neil Finn

Hello Sandy Allen
Split Enz
Original Album:   Time and Tide

Words and Music by Neil Finn
Copyright © 1982 Mushroom Music Pty Limited
Published by Mushroom Music Publishing Pty Limited

Transcribed by Gavin Chart (contactus@gartfrets.net)


NOTES:
If you are a solo guitar, you could probably play the verse chords
(D, G and A) as an intro. 
 
In the CHORUS, the A7-Dm-Em-F#m transitions can be picked as follows.
You only pick the 4th and 2nd strings:

|---------------------------------|
|----2-------3-------5-------7----|
|---------------------------------|
|--2---2-s-3---3-s-5---5-s-7---7--|
|---------------------------------|
|---------------------------------|
 


VERSE:
Chords:
D  xx0232    Bm  xx4432
G  320033    C   332010
A  x02220

D       G     A      D             G       A     
  Hello Sandy Allen,   the world's tallest woman. 
D         G          A         D               G        A
  We made friends in New York,   don't know if you'll remember.
      G        A     Bm     C            G          A       D
  I'm bound to say I felt uneasy, when I first laid eyes on you.


VERSE:
Chords:
D  xx0232    Bm  xx4432
G  320033    C   332010
A  x02220

D       G         A       D              G      A
  But I liked the way you talked, like a living hoper,
D          G    A         D              G    A 
  Towering over our heads,  in more ways than one.
      G         A        Bm       C           G      A     Em
  The hand that shook my hand was awesome, it still amazes me


CHORUS:
Chords:
D   xx0232    Dm  xx323x
Gm  x1003x    Em  xx545x
A7  x0202x    F#m xx767x

D                   Gm             D                     A7  Dm        
  Hope you're happy    Sandy Allen,  Hope your garden is blooming,
D                   Gm                D                 A7 Dm  Em
  We're all staring    at the mirror, tryin' to put our fa-ces on, 
  F#m            A7   Dm  Em
Appearance never held you back,
F#m                 A7 Dm  Em   F#m               A7 Dm    Em   F#m
Must be when you're number one, you don't have to try   so hard.


[INSTRUMENTAL]

|--------------------------------------6/-6-//-6---6/-6-//-6---|
|--------------------------------------6/-6-//-6---6/-6-//-6---|
|--------------------------------------8/-10//-8---8/-10//-8---|
|-9-7-5-7--7-5------5h7p5------5h7p5---6/-6-//-6---6/-6-//-6---|
|--------------7-5--------7-5--------7-7/-7-//-7---7/-7-//-7---|
|--------------------------------------6/-6-//-6---6/-6-//-6---|


|------------------------------6/-6-//-6---6/-6-//-6---|
|------------------------------6/-6-//-6---6/-6-//-6---|
|------------------------------8/-10//-8---8/-10//-8---|
|--7-5------5h7p5------5h7p5---6/-6-//-6---6/-6-//-6---|
|------7-5--------7-5--------7-7/-7-//-7---7/-7-//-7---|
|------------------------------6/-6-//-6---6/-6-//-6---|


D     Dsus2
Hello Sandy Allen...
D     Dsus2
Hello Sandy Allen...
D     Dsus2
Seven-storey Woman...


|-----------------------------------------------------|
|-----------------------------------------------------|
|------0-2------0-2--0--------------0-2---0-----------|
|--2h4------2h4--------4-2p0h2--2h4-----4---4-2p0h2---|
|-----------------------------------------------------|
|-----------------------------------------------------|


    G         A        Bm       C           G      A     Em
The hand that shook my hand was awesome, it still amazes me


[repeat CHORUS]


|---------------------------------|
|----2-------3-------5-------7----|
|---------------------------------|
|--2---2-s-3---3-s-5---5-s-7---7--|
|---------------------------------|
|---------------------------------|

                                 Sandy...!

[repeat until you get bored]

[end on D] 
Добавлено: 17.11.2015
Другие материалы по этой песне:
  • Аккорды и текст

Страница создана 01.06.2012
http://primanota.ru/split-enz/hello-sandy-allen-chords.htm
Привет, Гость.
Предлагаем пройти революционный курс по гитаре.
Подарок от PrimaNota.Ru, забирай!