PrimaNota.ru - самый крупный в мире бесплатный архив песенных текстов, аккордов, табулатур и нот


Splender - Monotone - текст песни, таба, видео

Регистрация Запомнить меня
Войти через:  Facebook Google Twitter Vk Yandex Mail.ru

Splender - Monotone - текст песни, таба, видео

Печатать
Просмотров: 98
Splender
"Monotone"

by Chris B



Verse (also the intro)

-----------------------------------------------------------
-----------------------------------------------------------
------4----------4------4------------4---------------------
--------4------4---4------4--------4---4-------------------
--0h2-----0------------------------------------------------
------------3--------0------0-2-3--------------------------


-----------------------------------------------------------
-----------------------------------------------------------
------4----------4------4------4------4--------------------
--------4------4---4------4------4------4------------------
--0h2-----0------------------------------------------------
------------3---------4------4------4----------------------



Chorus

-----------------------------------------------------------
-----------------------------------------------------------
-----------------------------------------------------------
--5--5-5--7--7-7--9--9-9--5--5-5---------------------------
--5--5-5--7--7-7--9--9-9--5--5-5---------------------------
--3--3-3--5--5-5--7--7-7--3--3-3---------------------------



Bridge 1

-----------------------------------------------------------
-----------------------------------------------------------
------4-----4-----4----------------------------------------
--------4-----4-----4--------------------------------------
--0h2------------------------------------------------------
----------3-----0------------------------------------------



Bridge 2

-----------------------------------0-----------------------
-------------------------------------0---------------------
------4--------4--------4----------------------------------
----4---4----4---4----4---4-----4--------------------------
--------------------2--------0-----------------------------
--3--------0-----------------------------------------------

Play sequence:

Intro, Verse, Chorus (2x), Bridge 1, Verse, Chorus (2x),
Bridge 2 (2x), Verse, Chorus (4x), Bridge 2 (4x)
     
Добавлено: 07.12.2013
Другие материалы по этой песне:
  • Аккорды и текст

Страница создана 21.03.2012
http://primanota.ru/splender/monotone-chords.htm
Привет, Гость.
Предлагаем пройти революционный курс по гитаре.
Подарок от PrimaNota.Ru, забирай!