PrimaNota.ru - самый крупный в мире бесплатный архив песенных текстов, аккордов, табулатур и нот


Splay - Echo Again - таба, видео

Регистрация Запомнить меня
Войти через:  Facebook Google Twitter Vk Yandex Mail.ru

Splay - Echo Again - таба, видео

Печатать
Просмотров: 147
SPLAY - Echo Again (INTRO) from Katekyo Hitman Reborn!

Notes: This is from the full version. I don't really remember the TV Size so I just had 
to be sure XD . Katekyo Hitman Reborn! lives forever \m/
Standard Tuning

Clean....|Strumming
e|-0-----|-0-0-0-0--0-0-0-0--0-|
B|---3---|-3-2-3-0--3-2-3-0--3-|
G|-----2-|-2-2-2-2--2-2-2-2--2-|
D|-------|---------------------|
A|-------|---------------------|
E|-------|---------------------|

e|-----------------------------------------------------|
B|-5-3-5-7-5-3--3-5-3-5-7-5-3--3-5-3-5-7-5-3--3--------|
G|----------------------------------------------4--2-2-|
D|-----------------------------------------------------|
A|-----------------------------------------------------|
E|-----------------------------------------------------|

e|-------------------5-7-9-7-9-10-|
B|-5-3-5-7-5-3--33-5--------------|
G|--------------------------------|
D|--------------------------------|
A|--------------------------------|
E|--------------------------------|
Добавлено: 24.09.2013
Вам также может быть интересно:
Другие материалы по этой песне:
  • Аккорды и текст

Страница создана 24.09.2013
http://primanota.ru/splay/echo-again-chords.htm
Привет, Гость.
Предлагаем пройти революционный курс по гитаре.
Подарок от PrimaNota.Ru, забирай!