PrimaNota.ru - самый крупный в мире бесплатный архив песенных текстов, аккордов, табулатур и нот


Splashh - Washed Up - бас-таба, видео

Регистрация Запомнить меня
Войти через:  Facebook Google Twitter Vk Yandex Mail.ru

Splashh - Washed Up - бас-таба, видео

Печатать
Просмотров: 124
Уроки эстрадного вокала в Санкт-Петербурге
Splashh - 8. Washed Up.



Intro - x2. Bass comes in after guitar repeats once.
G|----------------|----------------|
D|----------------|----------------|
A|5-5-5-55-55-5-55|5-5-5-5---------|
E|----------------|-------7-77-7-7-|x2

G|----------------|------------------|
D|----------------|------------------|
A|-------55-5-5-5/|10-10-9-9---------|
E|0-0-3-3---------|---------7-77-7-7-|x2


Verse - x2
G|----------------|----------------|
D|----------------|----------------|
A|5-5-5-55-55-5-55|5-5-5-5---------|
E|----------------|-------7-77-7-7-|x2

G|----------------|------------------|
D|----------------|------------------|
A|-------55-5-5-5/|10-10-9-9---------|
E|0-0-3-3---------|---------7-77-7-7-|x2


Chorus - x2
G|----------------|----------------|----------------|----------------|--------|
D|--------7-------|--------7-------|--------7-------|--------7-------|--------|
A|5-5-5-5---5-5-5-|5-5-5-5---5-5-5-|5-5-5-5---5-5-5-|5-5-5-5---5-5-5-|--------|
E|----------------|----------------|----------------|----------------|7-7-7-7-|x1

G|----------------|----------------|----------------|--------|
D|--------7-------|--------7-------|--------7-------|--------|
A|5-5-5-5---5-5-5-|5-5-5-5---5-5-5-|5-5-5-5---5-5-5-|--------|
E|----------------|----------------|----------------|7-7-7-7-|x1
Добавлено: 10.09.2013
Другие материалы по этой песне:
  • Аккорды и текст

Страница создана 10.09.2013
http://primanota.ru/splashh/washed-up-chords.htm
Привет, Гость.
Предлагаем пройти революционный курс по гитаре.
Подарок от PrimaNota.Ru, забирай!