PrimaNota.ru - самый крупный в мире бесплатный архив песенных текстов, аккордов, табулатур и нот


Splashh - Vacation - бас-таба, видео

Регистрация Запомнить меня
Войти через:  Facebook Google Twitter Vk Yandex Mail.ru

Splashh - Vacation - бас-таба, видео

Печатать
Просмотров: 81
Splashh - 4. Vacation.



Intro
G|----------------|----------------|
D|----------------|----------------|
A|5-2-2-2-2-2-2-2-|--------------5-|
E|----------------|3-3-3-3-3-3-3---|x4


Verse
G|----------------|----------------|
D|----------------|----------------|
A|5-2-2-2-2-2-2-2-|--------------5-|
E|----------------|3-3-3-3-3-3-3---|x7

G|----------------|----------------|
D|----------------|----------------|
A|5-2-2-2-2-2-2-2-|----------------|
E|----------------|3-3-3-3-3-3-3-3-|x1


Chorus 1 and 2
G|----------------|----------------|----------------|----------------|
D|----------------|----------------|----------------|----------------|
A|5-5-5-5-5-5-5-5/|9-9-9-9-9-9-9-9-|5-5-5-5-5-5-5-5/|9-9-9-9---------|
E|----------------|----------------|----------------|--------8-8-8-8-|x2


Post-Chorus
G|----------------|----------------|
D|----------------|----------------|
A|5-2-2-2-2-2-2-2-|--------------5-|
E|----------------|3-3-3-3-3-3-3---|x4


Verse
G|----------------|----------------|
D|----------------|----------------|
A|5-2-2-2-2-2-2-2-|--------------5-|
E|----------------|3-3-3-3-3-3-3---|x4


"Vacation" Break
G|----------------|----------------|
D|----------------|----------------|
A|5-2-2-2-2-2-2-2-|--------------5-|
E|----------------|2-2-2-2-2-2-2---|x3

G|----------------|----------------|
D|----------------|----------------|
A|5-2-2-2-2-2-2-2-|----------------|
E|----------------|2-2-2-2-2-2-2---|x1


Break
G|----------------|--------------------|
D|---------------/|12-12---------------|
A|9-9-9-9-9-------|------12-12-9-9-7-7-|
E|----------7-7-7-|--------------------|x6


Outro
G|----------------|----------------|
D|----------------|----------------|
A|5-2-2-2-2-2-2-2-|--------------5-|
E|----------------|3-3-3-3-3-3-3---|x14


End on
G|----------------|
D|----------------|
A|5~--------------|
E|----------------|
Добавлено: 05.09.2013
Вам также может быть интересно:
Другие материалы по этой песне:
  • Аккорды и текст

Страница создана 05.09.2013
http://primanota.ru/splashh/vacation-chords.htm
Привет, Гость.
Предлагаем пройти революционный курс по гитаре.
Подарок от PrimaNota.Ru, забирай!