PrimaNota.ru - самый крупный в мире бесплатный архив песенных текстов, аккордов, табулатур и нот


Splashh - Sun Kissed Bliss - бас-таба, видео

Регистрация Запомнить меня
Войти через:  Facebook Google Twitter Vk Yandex Mail.ru

Splashh - Sun Kissed Bliss - бас-таба, видео

Печатать
Просмотров: 155
Splashh - Sun Kissed Bliss.



Intro
G|----------------|----------------|----------------|----------------|
D|----------------|7-7-7-77-77-7-77|----------------|----------------|
A|5-5-5-55-55-5-55|----------------|3-3-3-33-33-3-33|----------------|
E|----------------|----------------|----------------|3-3-3-33-33-3-33|x2


Verse 1
G|----------------|----------------|----------------|----------------|
D|----------------|7-7-7-77-77-7-77|----------------|----------------|
A|5-5-5-55-55-5-55|----------------|3-3-3-33-33-3-33|----------------|
E|----------------|----------------|----------------|3-3-3-33-33-3-33|x7

G|----------------|----------------|----------------|--------------------|
D|----------------|7-7-7-77-77-7-77|----------------|10-10-10-10-9-9-9-7-|
A|5-5-5-55-55-5-55|----------------|3-3-3-33-33-3-3/|--------------------|
E|----------------|----------------|----------------|--------------------|x1


Chorus 1 and 2
G|----------------|-----------------|----------------|----------------|
D|5-5-5-5-5-5-5-5-|--------10-9-7-7-|5-5-5-5-5-5-5-5-|----------4-4-4-|
A|----------------|7-7-7-7----------|----------------|7-7-7-7-7-------|
E|----------------|-----------------|----------------|----------------|x1

G|----------------|-----------------|----------------|----------------|
D|5-5-5-5-5-5-5-5-|--------10-9-7-7-|5-5-5-5-5-5-5-5-|5-5-5-5-5-4-4-4-|
A|----------------|7-7-7-7----------|----------------|----------------|
E|----------------|-----------------|----------------|----------------|x1


Verse 2
G|----------------|----------------|----------------|----------------|
D|----------------|7-7-7-77-77-7-77|----------------|----------------|
A|5-5-5-55-55-5-55|----------------|3-3-3-33-33-3-33|----------------|
E|----------------|----------------|----------------|3-3-3-33-33-3-33|x9

G|----------------|----------------|----------------|--------------------|
D|----------------|7-7-7-77-77-7-77|----------------|10-10-10-10-9-9-9-7-|
A|5-5-5-55-55-5-55|----------------|3~--------------|--------------------|
E|----------------|----------------|----------------|--------------------|x1
Добавлено: 14.07.2013
Другие материалы по этой песне:
  • Аккорды и текст

Страница создана 14.07.2013
http://primanota.ru/splashh/sun-kissed-bliss-chords.htm
Привет, Гость.
Предлагаем пройти революционный курс по гитаре.
Подарок от PrimaNota.Ru, забирай!