PrimaNota.ru - самый крупный в мире бесплатный архив песенных текстов, аккордов, табулатур и нот


Splashh - Strange Fruit - бас-таба, видео

Регистрация Запомнить меня
Войти через:  Facebook Google Twitter Vk Yandex Mail.ru

Splashh - Strange Fruit - бас-таба, видео

Печатать
Просмотров: 87
Splashh - 9. Strange Fruit.



Intro
G|----------------|----------------|----------------|----------------|
D|----------------|----------------|--------7-------|----------------|
A|------REST------|------REST------|5-5-5-5---5-7---|----------9-9-9-|
E|----------------|----------------|--------------7-|7-7-7-7-7-------|x1

G|----------------|----------------|----------------|----------------|
D|--------9-9-9---|----------------|--------7-------|----------------|
A|7-7-7-7-------9-|9-9-9-9-9-9-9-9-|5-5-5-5---5-7---|----------9-9-9-|
E|----------------|----------------|--------------7-|7-7-7-7-7-------|x1


Verse 1
G|----------------|----------------|----------------|----------------|
D|--------9-9-9---|----------------|--------7-------|----------------|
A|7-7-7-7-------9-|9-9-9-9-9-9-9-9-|5-5-5-5---5-7---|----------9-9-9-|
E|----------------|----------------|--------------7-|7-7-7-7-7-------|x2

G|----------------|----------------|----------------|----------------|
D|--------9-9-9---|----------------|--------9-9-9---|----------------|
A|7-7-7-7-------9-|9-9-9-9-9-9-9-9-|7-7-7-7-------9-|9-9-9-9-9-9-9-9-|
E|----------------|----------------|----------------|----------------|x1


Chorus 1 and 2
G|----------------|----------------|
D|----------------|----------------|
A|7-7-7-7\5-5-5-5/|9-9-9-9-9-9-9-9-|
E|----------------|----------------|x4

G|------------------------|------------------------------|
D|------------------------|------------------------------|
A|13-13-13-13-13-13-13-13-|13b^-13b^-13b^-13b^-14-14r-13-|
E|------------------------|------------------------------|x1


Post-Chorus
G|----------------|----------------|----------------|----------------|
D|--------9-9-9---|----------------|--------7-------|----------------|
A|7-7-7-7-------9-|9-9-9-9-9-9-9-9-|5-5-5-5---5-7---|----------9-9-9-|
E|----------------|----------------|--------------7-|7-7-7-7-7-------|x1


Verse 2
G|----------------|----------------|----------------|----------------|
D|--------9-9-9---|----------------|--------7-------|----------------|
A|7-7-7-7-------9-|9-9-9-9-9-9-9-9-|5-5-5-5---5-7---|----------9-9-9-|
E|----------------|----------------|--------------7-|7-7-7-7-7-------|x2

G|----------------|----------------|
D|--------9-9-9---|----------------|
A|7-7-7-7-------9-|9-9-9-9-9-9-7-7-|
E|----------------|----------------|x1


Break - x4.
G|-----------------------|
D|------11----------9----|
A|11-11----11-11-11---11-|
E|-----------------------|x4

G|----------------|----------------|
D|----------------|----------------|
A|6-6-------------|6-6-------------|
E|----7-9-9-9-9-9-|----7\4-4-4-4-4/|x1


Break-Chorus Transition
G|----------------|----------------|
D|----------------|----------------|
A|5-5-5-5-5-5-5-5-|5-5-5-5-5-5-5-5-|
E|----------------|----------------|x1


Outro - x3.
G|-----------------|------------------------|
D|7-7-7-7-7/9-9/11-|11-11-11-11-11-11-11-11-|
A|-----------------|------------------------|
E|-----------------|------------------------|x1

G|-----------------|------------------------|
D|4-4-4-4-4/9-9/11-|11-11-11-11-11-11-11-11-|
A|-----------------|------------------------|
E|-----------------|------------------------|x1


End with
G|------------------------|------------------------------|
D|------------------------|------------------------------|
A|13-13-13-13-13-13-13-13-|13b^-13b^-13b^-13b^-14-14r-13\|
E|------------------------|------------------------------|x1
Добавлено: 20.08.2013
Другие материалы по этой песне:
  • Аккорды и текст

Страница создана 20.08.2013
http://primanota.ru/splashh/strange-fruit-chords.htm
Привет, Гость.
Предлагаем пройти революционный курс по гитаре.
Подарок от PrimaNota.Ru, забирай!