PrimaNota.ru - самый крупный в мире бесплатный архив песенных текстов, аккордов, табулатур и нот


Splashh - Lost Your Cool - бас-таба, видео

Регистрация Запомнить меня
Войти через:  Facebook Google Twitter Vk Yandex Mail.ru

Splashh - Lost Your Cool - бас-таба, видео

Печатать
Просмотров: 83
Splashh - 10. Lost Your Cool.



Intro
G|----------------|----------------|----------------|----------------|
D|5---------------|----------------|----------------|----------------|
A|--7-7-7-7-7-7-7-|7-7-7-7-7-7-7-7-|5-5-5-5-5-5-5-5-|5-5-5-5-5-5-5-5-|
E|----------------|----------------|----------------|----------------|

G|----------------|----------------|----------------|----------------|
D|5---------------|----------------|----------------|--7-7-7-7-7-7-7-|
A|--7-7-7-7-7-7-7-|7-7-7-7-7-7-7-7-|5-5-5-5-5-5-5-5-|5---------------|
E|----------------|----------------|----------------|----------------|


Verse 1 - x3.
G|----------------|----------------|----------------|----------------|
D|5---------------|----------------|----------------|----------------|
A|--7-7-7-7-7-7-7-|7-7-7-7-7-7-7-7-|5-5-5-5-5-5-5-5-|5-5-5-5-5-5-5-5-|
E|----------------|----------------|----------------|----------------|

G|----------------|----------------|----------------|----------------|
D|5---------------|----------------|----------------|--7-7-7-7-7-7-7-|
A|--7-7-7-7-7-7-7-|7-7-7-7-7-7-7-7-|5-5-5-5-5-5-5-5-|5---------------|
E|----------------|----------------|----------------|----------------|


Chorus
G|14-14-14-14-14-14-14-12-|12-11-11-11-11-11-11-11-|
D|0--0--0--0--0--0--0--0--|0--0--0--0--------------|
A|------------------------|------------12-12-12-12-|
E|------------------------|------------------------|x3
This may be two different bass tracks,
one playing D to A and one playing the high notes,
but it can be played simultaneously like this.

G|10-10-10-10-10-10-10-10-|10-10-10-10-10-10-10-10-|
D|0--0--0--0--0--0--0--0--|0--0--0--0--0--0--0--0--|
A|------------------------|------------------------|
E|------------------------|------------------------|x1

G|------------------------|------------------------|
D|0--0--0--0--0--0--0--0--|0--0--0--0--0--0--0--0--|
A|------------------------|------------------------|
E|------------------------|------------------------|x1


Post-Chorus, Verse 2, Post-Verse 2
G|----------------|----------------|----------------|----------------|
D|5---------------|----------------|----------------|--7-7-7-7-7-7-7-|
A|--7-7-7-7-7-7-7-|7-7-7-7-7-7-7-7-|5-5-5-5-5-5-5-5-|5---------------|
E|----------------|----------------|----------------|----------------|

G|----------------|----------------|----------------|----------------|
D|5---------------|----------------|----------------|----------------|
A|--7-7-7-7-7-7-7-|7-7-7-7-7-7-7-7-|5-5-5-5-5-5-5-5-|5-5-5-5-5-5-5-5-|
E|----------------|----------------|----------------|----------------|


Outro
G|----------------|----------------|----------------|----------------|
D|----------------|----------5-5-5-|----------------|----------------|
A|3-3-3-3-3-3-3-3-|3-3-3-3-3-------|2-2-2-2-2-2-2-2/|7-7-7-5-5-5-5-5-|
E|----------------|----------------|----------------|----------------|x8
Добавлено: 27.10.2013
Другие материалы по этой песне:
  • Аккорды и текст

Страница создана 27.10.2013
http://primanota.ru/splashh/lost-your-cool-chords.htm
Привет, Гость.
Предлагаем пройти революционный курс по гитаре.
Подарок от PrimaNota.Ru, забирай!