PrimaNota.ru - самый крупный в мире бесплатный архив песенных текстов, аккордов, табулатур и нот


Splashh - Lemonade - бас-таба, видео

Регистрация Запомнить меня
Войти через:  Facebook Google Twitter Vk Yandex Mail.ru

Splashh - Lemonade - бас-таба, видео

Печатать
Просмотров: 141
Splashh - 6. Lemonade.



Whole Song Except Bridge
G|----------------|----------------|----------------|----------------|
D|----2-----------|----2-----------|----7-----------|----7-----------|
A|----------5-5-5-|----------5-5-5-|5-5---5-5-4-4-4-|5-5---5-5-7-7-7-|
E|3-3---3-3-------|3-3---3-3-------|----------------|----------------|


Bridge - x4
G|----------------|----------------|---------------------14\|
D|5-5-5-5-5-5-5-5-|5-5-5-5-5-5-5-5/|12-12-12-12-12-12-12----|
A|----------------|----------------|------------------------|
E|----------------|----------------|------------------------|

G|----------------|----------------|
D|7-7-7-7-7-7-7-7-|4-4-4-4-4-4-4-4-|
A|----------------|----------------|
E|----------------|----------------|
Добавлено: 02.09.2013
Другие материалы по этой песне:
  • Аккорды и текст

Страница создана 02.09.2013
http://primanota.ru/splashh/lemonade-chords.htm
Привет, Гость.
Предлагаем пройти революционный курс по гитаре.
Подарок от PrimaNota.Ru, забирай!