PrimaNota.ru - самый крупный в мире бесплатный архив песенных текстов, аккордов, табулатур и нот


Splashh - Headspins - бас-таба, видео

Регистрация Запомнить меня
Войти через:  Facebook Google Twitter Vk Yandex Mail.ru

Splashh - Headspins - бас-таба, видео

Печатать
Просмотров: 142
Splashh – 1. Headspins.



Intro
G|----------------|----------------|----------------|----------------|
D|----------------|----------------|----------------|----------------|
A|----------------|----------------|----------------|----------------|
E|3-3-3-3-7-7-7-7-|8-8-8-8-8-8-8-8-|3-3-3-3-7-7-7-7-|8-8-8-8-8-8-8-8-|x5


Intro Continued
G|----------------|----------------|----------------|-----------------|
D|----------------|----------------|----------------|--------9-9------|
A|----------------|----------------|----------------|------------10-7-|
E|3-3-3-3-7-7-7-7-|8-8-8-8-7-8-3-0-|3-3-3-3-7-7-7-7-|8-8-8-8----------|x2


Verse 1
G|----------------|----------------|----------------|----------------|
D|----------------|----------------|----------------|----------------|
A|----------------|----------------|----------------|----------------|
E|3-3-3-3-7-7-7-7-|8-8-8-8-8-8-8-8-|3-3-3-3-7-7-7-7-|8-8-8-8-8-8-8-8-|x2


Chorus
G|----------------|----------------|----------------|----------------|
D|7-7-------------|----------------|5-5-5-5-7-7-7-7-|9-9-9-9-9-9-9-9-|
A|----7-7-5-5-7-7-|3-3-3-3-3-3-3-3/|----------------|----------------|
E|----------------|----------------|----------------|----------------|x2


Post-Chorus
G|----------------|----------------|
D|----------------|----------------|
A|3~--------------|7~--------------|
E|----------------|----------------|x1


Pre-Verse
G|----------------|----------------|----------------|----------------|
D|----------------|----------------|----------------|----------------|
A|----------------|----------------|----------------|----------------|
E|3-3-3-3-7-7-7-7-|8-8-8-8-8-8-8-8-|3-3-3-3-7-7-7-7-|8-8-8-8-8-8-8-8-|x1


Verse 2
G|----------------|----------------|----------------|----------------|
D|----------------|----------------|----------------|----------------|
A|----------------|----------------|----------------|----------------|
E|3-3-3-3-7-7-7-7-|8-8-8-8-8-8-8-8-|3-3-3-3-7-7-7-7-|8-8-8-8-8-8-8-8-|x4


Break
G|-----------------------|----------------|-----------------------|----------------|
D|------------12-12-12---|----------------|------------12-12-12---|----------------|
A|10-10-10-10----------7-|7-7-7-7-7-3-3-3/|10-10-10-10----------7-|7-7-7-7-7-3-3-3-|
E|-----------------------|----------------|-----------------------|----------------|x2


Outro
G|----------------|----------------|----------------|----------------|
D|----------------|----------------|----------------|----------------|
A|----------------|----------------|----------------|----------------|
E|3-3-3-3-7-7-7-7-|8-8-8-8-8-8-8-8-|3-3-3-3-7-7-7-7-|8-8-8-8-8-8-8-8-|x4


End 
G|----------------|----------------|
D|----------------|----------------|
A|----------------|----------------|
E|3-3-3-3-7-7-7-7-|8-8-8-8-8-8-8-8-| And then reversed guitar.
Добавлено: 22.06.2013
Другие материалы по этой песне:
  • Аккорды и текст

Страница создана 22.06.2013
http://primanota.ru/splashh/headspins-chords.htm
Привет, Гость.
Предлагаем пройти революционный курс по гитаре.
Подарок от PrimaNota.Ru, забирай!