PrimaNota.ru - самый крупный в мире бесплатный архив песенных текстов, аккордов, табулатур и нот


Splashh - Feels Like You - таба, бас-таба, видео

Регистрация Запомнить меня
Войти через:  Facebook Google Twitter Vk Yandex Mail.ru

Splashh - Feels Like You - таба, бас-таба, видео

Печатать
Просмотров: 129
Уроки эстрадного вокала в Санкт-Петербурге
Splashh - Feels Like You
Tuning: Standard EADGBe
Tabbed by: Billybusa (me)

Verse 1:

Guitar 1
E||-----0-----7-----9-----7--|
B||--9-----9-----9-----9-----|
G||--------------------------|
D||--------------------------| x16
A||--------------------------|
E||--------------------------|

Guitar 2
E||-------------------------------------|
B||-------------------------------------|
G||-------------------------------------|
D||-------------------------------------| x16
A||--11--11--11--11-11-11--11--11\--9/--|
E||-------------------------------------|

Chorus:

Guitar 1 (Heavily distorted)
E||--------------6--6--6----|--------------------------|
B||--7----7------7--7--7----|--5--5--5--5--5--5--5--5--|
G||--8----8--8-8-8--8--8----|--6--6--6--6--6--6--6--6--|
D||--9----9--9-9-8--8--8----|--7--7--7--7--7--7--7--7--|
A||--9----9--9-9-6--6--6----|--7--7--7--7--7--7--7--7--|
E||--7----7--7-7------------|--5--5--5--5--5--5--5--5--|

|---9---9---9--------4--4--4--4--|--------------------------|
|--10--10--10--------5--5--5--5--|--9--9--9--9--9--9--9--9--|
|--11--11--11--11-11-6--6--6--6--|--9--9--9--9--9--9--9--9--|
|--11--11--11--11-11-6--6--6--6--|--9--9--9--9--9--9--9--9--|
|---9---9---9---9--9-4--4--4--4--|--7--7--7--7--7--7--7--7--|
|--------------------------------|--------------------------|

Guitar 2 (With Wah and Flanger)
E||-------------------------|---------------------------|
B||-------------------------|---------------------------|
G||-------------------------|---------------------------|
D||-------------------------|---------------------------|
A||--------------6--7--6----|---------------------------|
E||--7--7--7--7-------------|--5--5--5--5-5-5--5--5-----|

|----------------------------|------------------------|
|----------------------------|------------------------|
|--4/6-----------------------|------------------------|
|-------6--4----4/6----------|----------------9-------|
|--------------------6--4----|--7----7---7-7-----7----|
|----------------------------|------------------------|

^^Play that whole thing 4 times.

Play the Verse again.

Bridge:

Guitar 1 & 2
E||----------------------------------|----------------------------------|
B||--10----10--10-10-10--10--10--10--|--10----10--10-10-10--10--10--10--|
G||--11----11--11-11-11--11--11--11--|--11----11--11-11-11--11--11--11--|
D||--11----11--11-11-11--11--11--11--|--11----11--11-11-11--11--11--11--|
A||---9-----9---9--9--9---9---9---9--|---9-----9---9--9--9---9---9---9--|
E||----------------------------------|----------------------------------|

|--------------------------|--------------------------||
|--7----7--7-7-5--5--5--5--|--7----7--7-7-5--5--5--5--||
|--8----8--8-8-6--6--6--6--|--8----8--8-8-6--6--6--6--||
|--9----9--9-9-7--7--7--7--|--9----9--9-9-7--7--7--7--||
|--9----9--9-9-7--7--7--7--|--9----9--9-9-7--7--7--7--||
|--7----7--7-7-5--5--5--5--|--7----7--7-7-5--5--5--5--||

^^Play that whole thing twice, then:

E||--------------------------|--------------------------||
B||--9--9--9--9--9--9--9--9--|--9--9--9--9--9--9--9--9--||
G||--9--9--9--9--9--9--9--9--|--9--9--9--9--9--9--9--9--||
D||--9--9--9--9--9--9--9--9--|--9--9--9--9--9--9--9--9--||
A||--7--7--7--7--7--7--7--7--|--7--7--7--7--7--7--7--7--||
E||--------------------------|--------------------------||

E||----------------------|----------------------||
B||--9---------------9-9-|--9---------------9-9-||
G||--9---------------9-9-|--9---------------9-9-||
D||--9---------------9-9-|--9---------------9-9-||
A||--7---------------7-7-|--7---------------7-7-||
E||----------------------|----------------------||

Then you play the Verse and Chorus one more time.

And that's it!
Добавлено: 07.05.2014
Другие материалы по этой песне:

Страница создана 11.10.2013
http://primanota.ru/splashh/feels-like-you-chords.htm
Привет, Гость.
Предлагаем пройти революционный курс по гитаре.
Подарок от PrimaNota.Ru, забирай!