PrimaNota.ru - самый крупный в мире бесплатный архив песенных текстов, аккордов, табулатур и нот


Spitz - Tsumetai Hoho - таба, видео

Регистрация Запомнить меня
Войти через:  Facebook Google Twitter Vk Yandex Mail.ru

Spitz - Tsumetai Hoho - таба, видео

Печатать
Просмотров: 68
Уроки эстрадного вокала в Санкт-Петербурге
Tsumetai Hoho ("Cold Cheek")
by Spitz
from the album "Fake Fur"
transcribed by Robert Goodwin Oct 2001
Please send comments to my email address at uvulabob@ihpc.net
See my Spitz Lyrics page for an English translation to=20
 this song's lyrics at http://sakuralover.tripod.com/spitz/lyrics.html


This is a good song for lead guitar. =20
Some swift position shifts are required.

Note: a few bass notes that are easy to add in are included in=20
      this transcription for when you are soloing

Intro
E--------0--------------0--------------0--------------0----------=20
B-----------1---1-0---0----0---0----------1---1-0---0----0---0---
G------0------0-----0--------0-------0------0-----0--------0-----
D----2-----------------------------2-----------------------------
A--3-----------------------------3--------------2----------------
E-----------------------------------------------------3----0-----

E--------0--------------0--------------0--------------0----------=20
B-----------1---1-0---0----0---0----------1---1-0---0------------
G------0------0-----0--------0-------0------0-----0--------------
D----2-----------------------------2------------------0----------
A--3--------------2--------------3--------------2--------3-2-----
E-----------------------3----0-----------------------------------


Verse ("Anata no koto wo...")
E--------0--------------0--------------0--------------------0----
B-----------1---1-0---0----0---0----------0---0-----1---3-----1--
G------0------0-----0--------0--------------0---------2---2------
D----2-------------------------------2------------2--------------
A--3-------------------------------2------------0----------------
E--------------------------------0-------------------------------

("Kodomo mitai na...")
E--------0------------3---0-------------2-7--------------5--------
B-----------1---1---------------------3------7---7-----5----5---5-
G------0------0---2/4---4----4---4-/4----------7-----5--------5---
D--2---------------------------5-------------------7--------------
A----3------------------------------------------------------------
E-----------------------------------------------------------------

("...fukareta kimi no...")
E--------0----------------5-3-----------0----------------0--------
B------2----2---2-----3-------3------------0---0-----1-----1---1--
G----3--------3-----4---4-------4------------0-----2---2-----2----
D--4--------------5-------------------2---------------------------
A-----------------------------------2------------0----------------
E---------------------------------0-------------------------------

("furetemita...")
E------1-------0-------1-------3-------
B--3-----3-0-----0-1-----1-3-----3-----
G----2-------0-------2-------4---------
D--0-------2-------3-------5-----------
A--------------------------------------
E--------------------------------------

Verse Ending 1
E--------0-------------3-----1----------------
B-----------1---1------------------5-----3----
G------0------0----2/4---1/2------------------
D----2-------------------------3/5---1/3------
A--3------------------------------------------
E---------------------------------------------

Verse Ending 2                   Verse Ending 3 (Final Ending)
E--------0---1---0-----------    E--------0---1---0------------
B------------0---1-----------    B------------0---1----(end with
G------0---0-0---0-----------    G------0---0-0---0-----complete
D----2-----------------------    D----2-------0---2-----G7 and C
A--3-------------------------    A--3---------2---3------chords)
E----------------------------    E------------3---0-------------


Chorus ("...sugite koi wa...")
E------0-------0-------0-------0-------0-------0-------0-------0---
B--3-------3-------3-------3-------1-------1-------3-------3-------
G----4---4---4---4---4---4---4---4---2---2---2---2---4---4---4---4-
D--------------------------------------------------0---------------
A----------------------------------0-------------------------------
E--3---------------4-----------------------------------------------

("..wanai to itsushika omotteita")
 Barre 1st fret    Barre 3rd fret
E------1-------1-------3-------3-------0-------1---
B--1-------1-------3-------3-------1-------1-------
G----2---2---2---2---4---4---4---4---0---0---0---0-
D--------------------------------------------------
A----------------------------------3---------------
E--1---------------3-------------------------------

Chorus Ending 1           Chorus Ending 2
E--0-----0-----0---       E--0-----0---------
B----1-----1-------       B----1-------1---1-
G------0-----0---0-       G------0-------0---
D------------------       D------------------
A------------------       A------------------
E------------------       E------------------

Chorus Cap ("Sore wa subete de...")
For this part you mostly strum chords:

F   G       Em   Am       F   E7(+5)  E7=20

E--------0--------0---------------
B-----------3---3-2---------------
G------2------2---2---------------
D----2------------2---------------
A--0--------------0------0----2---
E-----------------0---------------
=20

This is the order:
Intro-> Verse(Ending 1)-> Verse(Ending 2)-> Chorus(Ending 1)->
Chorus(Ending 2)-> Chorus Cap -> Verse(Ending 2) -> Chorus(Ending 1)->
Chorus(Ending 2)-> Chorus Cap -> Verse(Ending 3)

     
Добавлено: 22.09.2013
Другие материалы по этой песне:
  • Аккорды и текст

Страница создана 08.08.2013
http://primanota.ru/spitz/tsumetai-hoho-chords.htm
Привет, Гость.
Предлагаем пройти революционный курс по гитаре.
Подарок от PrimaNota.Ru, забирай!