PrimaNota.ru - самый крупный в мире бесплатный архив песенных текстов, аккордов, табулатур и нот


Spitalfield - Its Cold Out There - таба, видео

Регистрация Запомнить меня
Войти через:  Facebook Google Twitter Vk Yandex Mail.ru

Spitalfield - Its Cold Out There - таба, видео

Печатать
Просмотров: 162
-------------------------------------------------------------------------------
                             IT'S COLD OUT THERE - Spitalfield
-------------------------------------------------------------------------------
Tabbed by: Josh
Email: jmdonn@asu.edu

Tuning: Standard (E-A-D-G-B-E)

The song's fairly simple, you've just gotta figure out the strum pattern.
 The solo that Mark Rose (the lead singer) plays when he does it live its
 pretty much improv on the the first three chords, so I'll show you how I 
play it, but you can play it however. 


Intro/Verse
e|---------------------------------------------------------------------------|
B|---------------------------------------------------------------------------|
G|--5------------------------------------------------------------------------|
D|--3------5-------3---------------------------------------------------------|
A|--5------3-------1---------------------------------------------------------|
E|---------5-------3---------------------------------------------------------|

Pre-Chorus (And I...Always...Always) (x3)
e|---------------------------------------------------------------------------|
B|---------------------------------------------------------------------------|
G|---------------------------------------------------------------------------|
D|--3------5-------7---------------------------------------------------------|
A|--1------3-------5---------------------------------------------------------|
E|--3------5-------7---------------------------------------------------------|

Pre-Chorus (x1) (Comin home just for the holidays...)
e|---------------------------------------------------------------------------|
B|---------------------------------------------------------------------------|
G|--5------------------------------------------------------------------------|
D|--3------5--------3--------------------------------------------------------|
A|--5------3--------1--------------------------------------------------------|
E|---------5--------3--------------------------------------------------------|

Breakdown/Solo
e|---------------------------------------------------------------------------|
B|---------------------------------------------------------------------------|
G|-------------------------------------2-------------------------------------|
D|--------3-----------5------------5-----------------------------------------|
A|-----1----1------3-----3----3h5--------------------------------------------|
E|-1h3--------3h5------------------------------------------------------------|

e|---------------------------------------------------------------------------|
B|---------------------------------------------------------------------------|
G|-------------------------------------3-------------------------------------|
D|--------3-----------5------------5-----------------------------------------|
A|-----1----1------3-----3----3h5--------------------------------------------|
E|-1h3--------3h5------------------------------------------------------------|

e|---------------------------------------------------------------------------|
B|---------------------------------------------------------------------------|
G|-------------------------------------5-------------------------------------|
D|--------3-----------5------------5-----------------------------------------|
A|-----1----1------3-----3----3h5--------------------------------------------|
E|-1h3--------3h5------------------------------------------------------------|

e|---------------------------------------------------------------------------|
B|---------------------------------------------------------------------------|
G|--5------------------------------------------------------------------------|
D|--3------5-------3---------------------------------------------------------|
A|--5------3-------1---------------------------------------------------------|
E|---------5-------3---------------------------------------------------------|

Final Chorus
e|---------------------------------------------------------------------------|
B|---------------------------------------------------------------------------|
G|--7------------------------------------------------------------------------|
D|--5------7-------3---------------------------------------------------------|
A|--7------5-------5---------------------------------------------------------|
E|---------7-------3---------------------------------------------------------|


| /  slide up
| \  slide down
| h  hammer-on
| p  pull-off
| ~  vibrato
| +  harmonic
| x  Mute note
===============================================================================
Добавлено: 28.04.2012
Другие материалы по этой песне:
  • Аккорды и текст

Страница создана 28.04.2012
http://primanota.ru/spitalfield/its-cold-out-there-chords.htm
Привет, Гость.
Предлагаем пройти революционный курс по гитаре.
Подарок от PrimaNota.Ru, забирай!