PrimaNota.ru - самый крупный в мире бесплатный архив песенных текстов, аккордов, табулатур и нот


Spitalfield - I Loved The Way She Said L A - текст песни, таба, драм-таба, видео

Регистрация Запомнить меня
Войти через:  Facebook Google Twitter Vk Yandex Mail.ru

Spitalfield - I Loved The Way She Said L A - текст песни, таба, драм-таба, видео

Печатать
Просмотров: 118
Band: Spitalfield
Song: I loved the way she said “LA”
Tabbed By: Nicholas Maricano
Tuning: Standard

I know this is not 100% but I believe it's better than the ones out there.  I messed 
with it and this is what I came up with ok.  Although the chorus I found out from a fellow 
so I can't take all the credit.  More like a group effort.

Intro
Mark
e]--------------------------------------------------------------|
B]--------------------------------------------------------------|
G]-5-5-5---4---5-5-5---4---5-5---4------------------------------|
D]-5-5-5---5---5-5-5---5---5-5---5------------------------------|       X 2
A]-3-3-3---3---3-3-3---3---3-3---3------------------------------|
E]--------------------------------------------------------------|

THEN

Mark
e]----------------------------------------------------------------------|
B]----------------------------------------------------------------------|
G]-5--4--5--4--5-5--5---------------------------------------        X 4-|
D]-5--5--5--5--5-5--4---------------------------------------------------|
A]-3--3--3--3--3-3--3---------------------------------------------------|
E]----------------------------------------------------------------------|

Dan
e]--------------------------------------------------------------|
B]--------------------------------------------------------------|
G]--------------------------------------------------------------|
D]-3--------10--------7----------5------------------------------|       X 2
A]-3-X6-----10-X8-----7-X6-------5-X8---------------------------|
E]-1--------8---------5----------3------------------------------|

Mark
e]-------------------------------------------------------------|
B]-------------------------------------------------------------|
G]--12-12-12--17-16---------12-12-12-12-----END-12-------------|
D]---x--x--x---x--x—(X 2)---x--x--x---x-------ON--x------------|                X 4
A]--10-10-10--15-14---------10-10-10-10---------10-------------|
E]-------------------------------------------------------------|

Dan
e]----------------------------------------------------------------|
B]----------------------------------------------------------------|
G]----------------------------------------------------------------|
D]-3------10-------7-----5----------------5-----------------------|     X 2
A]-3-X6---10-X8----7-X6--5-X8-------END---5-----------------------|
E]-1------8--------5-----3----------ON----3-----------------------|

Verse

Mark
e|----------------------------------------------------|
B|----------------------------------------------------|
G|-4~---5~---x5---x5---x5---x5---x3---x3---x3---------|
D|-5~---5~---x5---x5---x5---x5---x5---x5---x5-    X 3-|
A|-3~---3~---x3---x3---x3---x3---x4---x4---x4---------|
E|----------------------------------------------------|

On the fourth time
e|---------------------------------------|
B|---------------------------------------|
G|-4~---5~---5---5---5---55555555--------|
D|-5~---5~---5---5---5---55555555--------|
A|-3~---3~---3---3---3---33333333--------|
E|---------------------------------------|

Dan
I not quite sure I could use some help.

Chorus

Mark and Dan

e|-----------------------------------|
B|-----------------------------------|
G|-----------5555-7777-9999-12121212-|
D|-3333-5555-xxxx-xxxx-xxxx--x-x-x-x-|
A|-3333-5555-3333-5555-7777-10101010-|
E|-1111-3333-------------------------|

e|--------------------------------------|
B|--------------------------------------|
G|-----------5-555-7777-5555-4444-------|
D|-3333-5555-x-xxx-xxxx-xxxx-xxxx-------|
A|-3333-5555-3-333-5555-3333-2222-------|
E|-1111-3333----------------------------|

REPEAT INTRO

REPEAT VERSE

REPEAT CHORUS

Outro

Mark
e]--------------------------------------------------------------|
B]--------------------------------------------------------------|
G]--12-12-12--17-16-----------12-12-12-12-----------------------|
D]---x--x--x--x---x—(X 2)------x--x--x--x-----------------------|       X 3
A]--10-10-10--15-14-----------10-10-10-10-----------------------|
E]--------------------------------------------------------------|


e]--------------------------------------------------------------------------|
B]--------------------------------------------------------------------------|
G]--12-12-12--17-16------12-12----------------------------------        x 1-|
D]---x--x--x--x---x-------x--x----------------------------------------------|
A]--10-10-10--15-14------10-10----------------------------------------------|
E]--------------------------------------------------------------------------|

THEN

e]------------------------------------------------------------------------|
B]------------------------------------------------------------------------|
G]--12-12-12--17-16-----------12--9---------------------------------------|
D]---x--x--x--x---x--(X 2)-----x--x------------------------          X  4-|
A]--10-10-10--15-14-----------10--7---------------------------------------|
E]------------------------------------------------------------------------|

END ON

e]------------------------------------------------------------|
B]------------------------------------------------------------|
G]--12--9----5------------------------------------------------|
D]---x--x----x------------------------------------------------|
A]--10--7----3------------------------------------------------|
E]------------------------------------------------------------|

Dan

e]-----------------------------------------------------------|
B]-----------------------------------------------------------|
G]-----------------------------------------------------------|
D]-3------10---------7-----------5---------------------------|          X 1
A]-3-X6---10-X8------7-X6--------5-X8------------------------|
E]-1------8----------5-----------3---------------------------|

e]------------------------------------------------------------|
B]------------------------------------------------------------|
G]------------------------------------------------------------|
D]-3------10--------7---------5------5--5---------------------|         X 1
A]-3-X6---10-X8-----7-X6------5-X8---5--5---------------------|
E]-1------8---------5---------3------3--3---------------------|

THEN

e]-----------------------------------------------------------|
B]-----------------------------------------------------------|
G]-----------------------------------------------------------|
D]-3------10-----x-10--x-10----7------5-----x5--x5-----------|        X 2
A]-3-X6---10-X4--x-10--x-10----7-X6---5-X4--x5--x5-----------|
E]-1------8------x-8---x--8----5------3-----x3--x3-----------|


END ON

G|-5-5--------|
D|-5-5---5~---|
A|-5-5---5~---|
E|-------3~---|
Добавлено: 09.07.2012
Другие материалы по этой песне:
  • Аккорды и текст

Страница создана 07.04.2012
http://primanota.ru/spitalfield/i-loved-the-way-she-said-l-a-chords.htm
Привет, Гость.
Предлагаем пройти революционный курс по гитаре.
Подарок от PrimaNota.Ru, забирай!