PrimaNota.ru - самый крупный в мире бесплатный архив песенных текстов, аккордов, табулатур и нот


Spirit - Topanga Windows - бас-таба, видео

Регистрация Запомнить меня
Войти через:  Facebook Google Twitter Vk Yandex Mail.ru

Spirit - Topanga Windows - бас-таба, видео

Печатать
Просмотров: 99
                            Topanga Windows

                                  by

                                Spirit

Fantastic, low key song by one of the greatest, most overlooked bands of all time, 
Spirit. Great, pulsing bass line.

("Watching the world through our...")
|------------------------------------------|
|------------------------------------------|
|-1---1--3--1---1--3--1---1--3--1---1--3---|
|------------------------------------------| x4

("Sunshine's warm through our...")
|------------------------------------------|
|-1---1--3--1---1--3--1---1--3--1---1--3---|
|------------------------------------------|
|------------------------------------------| x2

("The cat lies sleeping...")
|------------------------------------------|
|------------------------------------------|
|-1---1--3--1---1--3--1---1--3--1---1--3---|
|------------------------------------------| x2

("Your time is going much too fast...")
|----------------------------|
|----------------------------|
|----------6-------------5---|
|---4-------------3----------|

("And what will be soon...")
|---------------------------------------------|
|---------------------------------------------|
|-1---1--3--1---1--3--1---1--3--1---1--2--3---|
|---------------------------------------------|

("People searching for a better...")
|------------------------------------------|
|------------------------------------------|
|-1---1--3--1---1--3--1---1--3--1---1--3---|
|------------------------------------------| x4

("Always asking...")
|------------------------------------------|
|-1---1--3--1---1--3--1---1--3--1---1--3---|
|------------------------------------------|
|------------------------------------------| x2

("What do you want...")
|------------------------------------------|
|------------------------------------------|
|-1---1--3--1---1--3--1---1--3--1---1--3---|
|------------------------------------------| x2

("Your time is going...")
|----------------------------|
|----------------------------|
|----------6-------------5---|
|---4-------------3----------|

("And what will be soon...")
|---------------------------------------------|
|---------------------------------------------|
|-1---1--3--1---1--3--1---1--3--1---1--2--3---|
|---------------------------------------------|

|------------------------------------------------------------|
|-------------------------3--33-3----------------------------|
|---1--2--3--33--33--33--3--------11--22--3--33--3--55--66---|
|------------------------------------------------------------|

|------------------------------------------------------|
|-------------------3--33-3----------------------------|
|---3--33--33--33--3--------11--22--3--33--33--33--3---|
|------------------------------------------------------|

|-------------------------------------|
|---10-10-10-10-10-10-10-8-7-----10---|
|----------------------------8h9------|
|-------------------------------------|

|--------------------------------------------------------------------|
|----------------------------6--66--6--------------------------------|
|---8--88--88--88--8-6--66--6--------8--88--88--88--88--88--88--88---|
|--------------------------------------------------------------------|

|-----------------------------------------------------------|
|-----------------------3--33--3----------------------------|
|---1-2-3--33--33--33--3---------11--22--3--33--33--33--3---|
|-----------------------------------------------------------|

|-----------------------------------------------------------------|
|-10-1010--1010--1010---------------------------------------------|
|----------------------8-9-10--1010--1010--1010--6--6--8--8--8~---|
|-----------------------------------------------------------------|

("When you find your own...")
|------------------------------------------|
|------------------------------------------|
|-1---1--3--1---1--3--1---1--3--1---1--3---|
|------------------------------------------| x4

("Spend your time behind...")
|------------------------------------------|
|-1---1--3--1---1--3--1---1--3--1---1--3---|
|------------------------------------------|
|------------------------------------------| x2

("Come out from the city...")
|------------------------------------------|
|------------------------------------------|
|-1---1--3--1---1--3--1---1--3--1---1--3---|
|------------------------------------------| x2

("Your time is going much...")
|----------------------------|
|----------------------------|
|----------6-------------5---|
|---4-------------3----------|

("And what will be soon...")
|---------------------------------------------|
|---------------------------------------------|
|-1---1--3--1---1--3--1---1--3--1---1--2--3---|
|---------------------------------------------|
Добавлено: 27.06.2013
Другие материалы по этой песне:
  • Аккорды и текст

Страница создана 27.06.2013
http://primanota.ru/spirit/topanga-windows-chords.htm
Привет, Гость.
Предлагаем пройти революционный курс по гитаре.
Подарок от PrimaNota.Ru, забирай!