PrimaNota.ru - самый крупный в мире бесплатный архив песенных текстов, аккордов, табулатур и нот


Spirit - Mr. Skin - текст песни, бас-таба, видео

Регистрация Запомнить меня
Войти через:  Facebook Google Twitter Vk Yandex Mail.ru

Spirit - Mr. Skin - текст песни, бас-таба, видео

Печатать
Просмотров: 150
                                 Mr. Skin 

                                    by 

                                  Spirit

This is a great song with an easy, grooving bass line. 

|-----------------------------0-2-3----------------|
|---1-2-3--------3-4-5---------------------1-2-3---|
|---------3------------3------------3--------------|
|--------------------------------------------------|

|-----------------------------------------------------------------|
|-----------------------------------------------------------------|
|---3-3---3------1-3-3---3------1-3-3---3------1-3-3---3------1---|
|------------1-3------------1-3------------1-3------------1-3-----| x3

|-----------------------------------------------------|
|---10-10-10-10-10-10-10-10-10-10-10-10-10-10-10-10---|
|-----------------------------------------------------|
|-----------------------------------------------------|

|-------------------------------------|
|------6----------6-------6-----------|
|---8------6--8------6--8-----6---8---|
|-------------------------------------|

|-----------------------------------------------------|
|---10-10-10-10-10-10-10-10-10-10-10-10-10-10-10-10---|
|-----------------------------------------------------|
|-----------------------------------------------------|

|-------------------------------------|
|------6----------6-------6-----------|
|---8------6--8------6--8-----6---8---|
|-------------------------------------|

|-----------------------------------------------------------------|
|-----------------------------------------------------------------|
|---3-3---3------1-3-3---3------1-3-3---3------1-3-3---3------1---|
|------------1-3------------1-3------------1-3------------1-3-----| x2

|-----------------------------------------------------|
|---10-10-10-10-10-10-10-10-10-10-10-10-10-10-10-10---|
|-----------------------------------------------------|
|-----------------------------------------------------|

|-------------------------------------|
|------6----------6-------6-----------|
|---8------6--8------6--8-----6---8---|
|-------------------------------------|

|-----------------------------------------------------|
|---10-10-10-10-10-10-10-10-10-10-10-10-10-10-10-10---|
|-----------------------------------------------------|
|-----------------------------------------------------|

|-------------------------------------|
|------6----------6-------6-----------|
|---8------6--8------6--8-----6---8---|
|-------------------------------------|

|-------------------------------------|
|------3----------3-------3-----------|
|---5------3--5------3--5-----3---5---|
|-------------------------------------|

|-------------------------------------------|
|-------------------------------------------|
|------------------------------------1--1---|
|---3-xx-3-xx-3-xx-3-xx-3-xx-3-xx-3---------| x3

|-------------------------------------------|
|-------------------------------------------|
|------------------------------------1--2---|
|---3-xx-3-xx-3-xx-3-xx-3-xx-3-xx-3---------|

|-------------------------------------|
|------1----------1-------1-----------|
|---3------1--3------1--3-----1---3---|
|-------------------------------------| x4

|-----------------------------0-2-3----------------|
|---1-2-3--------3-4-5---------------------1-2-3---|
|---------3------------3------------3--------------|
|--------------------------------------------------|

|-----------------------------------------------------------------|
|-----------------------------------------------------------------|
|---3-3---3------1-3-3---3------1-3-3---3------1-3-3---3------1---|
|------------1-3------------1-3------------1-3------------1-3-----|
Добавлено: 29.08.2013
Другие материалы по этой песне:
  • Аккорды и текст

Страница создана 26.07.2012
http://primanota.ru/spirit/mr-skin-chords.htm
Привет, Гость.
Предлагаем пройти революционный курс по гитаре.
Подарок от PrimaNota.Ru, забирай!