PrimaNota.ru - самый крупный в мире бесплатный архив песенных текстов, аккордов, табулатур и нот


Spirit Caravan - No Hope Goat Farm - текст песни, бас-таба, видео

Регистрация Запомнить меня
Войти через:  Facebook Google Twitter Vk Yandex Mail.ru

Spirit Caravan - No Hope Goat Farm - текст песни, бас-таба, видео

Печатать
Просмотров: 119
-------------------------------------------------------------------------------
                             NO HOPE GOAT FARM - Spirit Caravan
                               From the album - Jug Fulla Sun
-------------------------------------------------------------------------------

Tabbed by: Diabolusinmusic (Talkbass handle)
E-mail: Don't e-mail me, just update the tab and credit me where due 

The timing and structure are not 100% accurate, this is an outline, you need
to listen to where the parts go and proper timing.

He does a hard bend/vibrato thing on the G (6th fret, C# string) in the main 
riff, I put the tilde (~) to indicate where.  The end of the intro I 
highlight ends the first main riff as well as other parts, so listen up for it
There is only a couple of riffs, you just have to listen to where they go, 
it is a pretty straight forward song. 

Tuning: Drop C#, tab is in relation to that (Think Eb standard with a drop D)

Intro Bass comes in around 0:05ish       -End riff, also after main riff
G|---------------------------------------|-----------------------------------|
D|---------------------------------------|-----------------------------------|
A|-5---------------5---5---------------5-|--3--2--------------------5--------|
E|----0-3-4-5--3p0--------0-3-4-5--3p0---|--------3p0--0-3-4-5--3p0----------|

Main riff/Verse/Solo
G|-------------------------------|-------------------------------------------|
D|-------------------------------|-------------------------------------------|
A|-------------------------------|-----------------------------3-----Con't---|
E|-0-0--3p0-0--5/6~-0-5-0-3h5-5--|--0-0--3p0-0--5/6~-0-5-0-3h5---------------|

Main riff Continued
G|-------------------------------|-------------------------------------------|
D|-------------------------------|-------------------------------------------|
A|-------------------------------|---------------------------3---------------|
E|-0-0--3p0-0--5/6~-0-5-0-3h5-5--|--0-0--3p0-0--5/6~-0-5p0h5-----------------|

First heard @ 1:05ish, again around 3:00 - Yeahhh! Heeyyy! - Listen for timing
G|---------------------------------------------------------------------------|
D|---------------------------------------------------------------------------|
A|-5p3-3--5p3-3--5p3-3--5p3-3--5p3h5p3---5p3-3--5p3-3--5p3-3--5p3-3--5p3h5p3-|
E|---------------------------------------------------------------------------|

Chorus - First heard @ 1:44ish
G|---------------------------------------------------------------------------|
D|---------------------------------------------------------------------------|
A|---------------------------------------------------------------------------|
E|---7--5--0---7--9--5---7--5--0---7--9--5-----------------------------------|
Добавлено: 29.10.2013
Вам также может быть интересно:
Другие материалы по этой песне:
  • Аккорды и текст

Страница создана 05.04.2012
http://primanota.ru/spirit-caravan/no-hope-goat-farm-chords.htm
Привет, Гость.
Предлагаем пройти революционный курс по гитаре.
Подарок от PrimaNota.Ru, забирай!