PrimaNota.ru - самый крупный в мире бесплатный архив песенных текстов, аккордов, табулатур и нот


Spirit Caravan - Dove-Tongued Aggressor - таба, видео

Регистрация Запомнить меня
Войти через:  Facebook Google Twitter Vk Yandex Mail.ru

Spirit Caravan - Dove-Tongued Aggressor - таба, видео

Печатать
Просмотров: 60
-------------------------------------------------------------------------------
                             DOVE-TONGUED AGGRESSOR - Spirit Caravan
-------------------------------------------------------------------------------
Tabbed by: El Zeido

I haven't seen any tabs for this song so I thought I might create one.
Should be about right.


Tuning: Drop C#
               

Use heavy distortion 

                            Main Riff
D#|---------------------------------------------------------------------------|
A#|---------------------------------------------------------------------------|
F#|---------------------------------------------------------------------------|
C#|---------------------------------------------------------------------------|
G#|--------------------------------------------------------------4p3----------|
C#|--0-0-0-0-3-0-0-6-0-0-3-0-3h5~------0-0-0-0-3-0-0-6-0-0-3h5-------5~-------|

D#|---------------------------------------------------------------------------|
A#|---------------------------------------------------------------------------|
F#|---------------------------------------------------------------------------|
C#|-------------------------------------------------------------------6-------|
G#|---------------------------------------------------------------3h5---------|
C#|--0-0-0-0-3-0-0-6-0-0-3-0-3h5~-----0-0-0-0-3-0-0-6-0-0-3-0-3h5-------------|

                     
                            Refrain
D#|---------------------------------------------------------------------------|
A#|---------------------------------------------------------------------------|
F#|--------10\-------5-------x4-----------------------------------------------|
C#|--0-----10\-------5--------------------------------------------------------|
G#|--0------8\-------3--------------------------------------------------------|
C#|--0------8\-------3--------------------------------------------------------|


                            Bridge
D#|---------------------------------------------------------------------------|
A#|---------------------------------------------------------------------------|
F#|---------------------------------------x4----------------------------------|
C#|---2-------2------2--------2---1--2--------------------6-------------------|
G#|---2--1----2--1---2--------2---1--2--------------------6-------------------|
C#|---2-------2------2--------2---1--2--------------------6-------------------|

************************************

| /   slide up
| \   slide down
| h   hammer-on
| p   pull-off
| ~   vibrato
| +   harmonic
| x   Mute note
| b   Bend
| pb  Pre-bend
| br  Bend release
| pbr Pre-bend release
| brb Bend release bend

************************************
Добавлено: 22.04.2016
Другие материалы по этой песне:
  • Аккорды и текст

Страница создана 22.04.2016
http://primanota.ru/spirit-caravan/dove-tongued-aggressor-chords.htm
Привет, Гость.
Предлагаем пройти революционный курс по гитаре.
Подарок от PrimaNota.Ru, забирай!