PrimaNota.ru - самый крупный в мире бесплатный архив песенных текстов, аккордов, табулатур и нот


Spinners - Spinners Live (album) - бас-таба, видео

Регистрация Запомнить меня
Войти через:  Facebook Google Twitter Vk Yandex Mail.ru

Spinners - Spinners Live (album) - бас-таба, видео

Печатать
Просмотров: 106
Уроки эстрадного вокала в Санкт-Петербурге
-----
Live!
-----
The Spinners
Bass Tabs
Bass played by Rodney Vorhis

Track Listing

1. Fascinating Rhythm
2. I've Got to Make It on My Own
3. Living a Little, Laughing a Little
4. One of a Kind (Love Affair)
5. Then Came You

6. Sadie
7. How Could I Let You Get Away
8. Could It Be I'm Falling in Love

9. Superstar Medley
10. Love Don't Love Nobody

11. Mighty Love


------------------
Fascinating Rhythm
------------------

216BPM, 4/4

[long introduction, drum roll etc]

Intro

|-------------|-------------|-------------|--------------| *dotted eighth
|-------------|-------------|-------------|--------------|
|-------------|-------------|-------------|-4--4--3--6*-6|
|-4--4--4--4--|-5--5--5--5--|-6--6--6--6--|--------------|

|-------------|--------------|------------|-----------|
|-3--3--------|-3-------3----|----5--6--7-|-8---------|
|-------3--6--|----3-------6-|------------|-----------|
|-------------|-------6------|------------|----6------|

Verse

|-------------|-------------|-------------|--------------|
|-------------|-------------|-3--3--------|--------------|
|-6--6-----6--|-------6-----|-------------|-6--6*-3---3--|
|-------6-----|-4--4-----4--|-------6--6--|--------6-----|

|-------------|-------------|-------------|---------------|
|-------3--3--|-5--5--6--6--|-------------|-3--3*-x--3----|
|-6--6--------|-------------|-6--6--6--6--|--------3---3--|
|-------------|-------------|-------------|---------------|

|-------------|-------------|-------------|-------------|
|-------------|----2--3--4--|-5--5--5--4--|-3--3-----0--|
|-3--3--3--3--|-2-----------|-------------|-------1-----|
|-------------|-------------|-------------|-------------|

Chorus
                3/4        4/4            1/4  4/4
|----/5--3-----|----------|-------53--3--|----|-------------|
|-3---------5--|-3--------|-3--3*--------|-5--|-3-----------|
|--------------|----3-----|--------------|----|----3-----5--|
|--------------|-------6--|--------------|----|-------6-----|

|-------------|---------|-------------|----|-------8*-----|
|-------------|---------|-------5-----|----|----8-----8---|
|-6-----------|------5--|-6--6-----8--|----|-6---------6--|
|----3--4--5--|-6-------|-------------|-8--|--------------|

|------------|-------------|-------------|------5-----|
|---6--------|-------5--5--|----------4--|-5-------5--|
|------6--6--|-8--8--------|----6--8-----|------------|
|------------|-------------|-8-----------|------------|

|-------5*-x---|-------------|-------------|-------------|
|----5---------|-3--3--------|----0--1--2--|-3--------3--|
|-3---------3--|-------3--2--|-1-----------|----3--1-----|
|--------------|-------------|-------------|-------------|

Verse

|-------------|----------|--------------|----|-------------|
|-3--3--3--2--|-3--3--3--|-3--3*-3------|-5--|-3--------3--|
|-------------|----------|-----------6--|----|----3--------|
|-------------|----------|--------6-----|----|-------6-----|

|-------------|----5--8--|-8--7--6--5--|----|----6--8*-----|
|----5--6--7--|-8--------|-------------|-9--|-8--------8---|
|-6-----------|----------|-------------|----|-----------6--|
|-------------|----------|-------------|----|--------------|

|------------|-------------|-------5*-----|-------------|
|---6--------|-3--3--5--5--|----5-----5---|-3--3--------|
|------6--6--|-------------|-3---------3--|-------3--6--|
|------------|-------------|--------------|-------------|

Chorus

|-------------|-------------|
|-3-----------|-3-----------|
|----3-----6--|----3-----6--|
|-------6-----|-------6-----|

|--------------|--------------|-------------|-------------|
|-9*----9------|-7*----7------|-5--5-----5--|-3--3--------|
|----9------6--|----7---------|-------5-----|----------6--|
|-----7--------|-----5-----2--|-------------|-------6-----|

|-------------|----------|------3-----|-3--|---3---------|
|-3--3--3--3--|-3--2--3--|-3-------3--|----|-3----3------|
|-------------|----------|------------|----|----------5--|
|-------------|----------|------------|----|-------------|

|-------------|----------|-------------|----|-------8*-----|
|-------------|----------|-------------|----|----8-----8---|
|-6-----------|-3--4--5--|-6--6--9--8--|----|-6---------6--|
|----3--4--6--|----------|-------------|-8--|--------------|

|-------------|-------------|-------------|----7--5-----|
|-6--6--------|-3--3--5--5--|-------3--3--|-5--------5--|
|-------6--6--|-------------|-3--6--------|-------------|
|-------------|-------------|-------------|-------------|

|-------5*-----|-------------|---------------|---------|
|----5-----5---|-3--3--------|-------1-1-2-3-|---------|
|-3---------3--|-------3--2--|-1--1----------|---------|
|--------------|-------------|---------------|---------|

Verse

|-------------|----------|-------------|----|--------------|
|-3--2--3--2--|-3--2--3--|-3--3--5--3--|-2--|-3*-x---5-----|
|-------------|----------|-------------|----|-----3-----5--|
|-------------|----------|-------------|----|--------------|

|-------------|----5--8--|-8--8--10--8--|----|-------8*-----|
|----5--6--7--|-8--------|--------------|-8--|-5--8-----8---|
|-6-----------|----------|--------------|----|-----------6--|
|-------------|----------|--------------|----|--------------|

|-------------|-------------|-------5*-----|-------------|
|-6--6--------|-3--3--5--5--|----5-----5---|-3--3--------|
|-------6--6--|-------------|-3---------3--|-------3--6--|
|-------------|-------------|--------------|-------------|

Chorus

|-------------|-------------|-------------|-------------|
|-3-----------|-3--------3--|-4-----------|-4--------4--|
|----3-----6--|----3--------|----4-----7--|----4--------|
|-------6-----|-------6-----|-------7-----|-------7-----|

|-------------|-------------|-------------|-------------|
|-3-----------|-3--------3--|-------3--3--|-5--5--3--3--|
|----3-----6--|----3--3-----|-6--6--------|-------------|
|-------6-----|-------------|-------------|-------------|

|-------------|--------|
|-------3--3--|-5------|
|-6--6--------|------5-|
|-------------|----5---|

Instrumental

|-------------|-----12-------11---|--------------|--------------|
|-------------|-------------------|--------------|-------9*-x---|
|-6--6-----6--|-10*---10--9*---9--|-8--8-----8*-x|----9------9--|
|-------6-----|-------------------|-------7------|-7------------|

|---------------|-------6*-x---|-------------|--------------|
|-6*-x6-----6*-x|----6------4--|-5--5-----5--|-3------------|
|--------6------|-4------------|-------5-----|----3*-3---5--|
|---------------|--------------|-------------|--------6-----|

|-------------|-----12-------11---|--------------|--------------|
|-------------|-------------------|--------------|-------9*-x5--|
|-6--6-----6--|-10*---10--9*---9--|-8--8-----8*-x|----9---------|
|-------6-----|-------------------|-------7------|-7------------|

|--------------|-------6*-x---|-------------|--------------|
|-6--6-----6-x-|----6------6--|-5--5-----5--|-3------------|
|-------6------|-4------------|-------5-----|----3*-3---5--|
|--------------|--------------|-------------|--------6-----|

Ending

|----3--------|-------------|-------------|-------------|
|-------6--5--|-3-----------|-4--4-----4--|-3-----------|
|-6-----------|----3-----6--|-------4-----|----3-----6--|
|-------------|-------6-----|-------------|-------6-----|

|--------------|--------------|----------|
|-3--3-----3-3-|--5---5*-67-8-|----------|
|-------3------|--------------|----------|
|--------------|--------------|---6------|

|-------------|-------------|---------------|-----------|
|-------5--5--|-6--6--7--7--|-8--8--5*-67-8-|--x--------|
|-6--6--------|-------------|---------------|-----6---6-|
|-------------|-------------|---------------|---6-------|

|-----------------|-----------------|-----------------|-----------------*|
|-----------------|-----------------|-----------------|-----------------*|
|-6-6-6-6-6-6-6-6-|-6-6-6-6-6-6-6-6-|-6-6-6-6-6-6-6-6-|-6-6-6-6-6-6-6-6-*|
|-----------------|-----------------|-----------------|-----------------*|


-----------------------------
I've Got to Make It on My Own
-----------------------------

128BPM, 4/4

Intro

|--------------|-------------|--------------|---------------|
|--------------|-------------|--------------|---------------|
|-1---1-1-1--1-|--1----------|-1---1-1-1----|-------------1-|
|--------------|-----1--3--4-|------------4-|--4-4--4-3-4---|

|-------------|-------------|---------------|---------------|
|-------------|-------------|---------------|--1------------|
|----1-1-1--1-|--1----------|-1---1-1-1-----|---------------|
|-------------|-----1--3--4-|-----------1-4-|----4--4-4-4-4-|

Verse

|--------------|------------|-----3-3-----3---|------------|
|--------------|------------|-----------------|----1--1----|
|-1---1-1-1--1-|------------|-1-1-----1-1---1-|----------1-|
|--------------|----1--3--4-|-----------------|------------|

|----------------|--------------|--------------|------------|
|----1-3-1-------|--------5-----|--------------|------------|
|----------3-----|--------------|------------1-|------------|
|-4----------4-3-|----333---3-1-|----1-1-3-4---|----1--3--4-|

|-----3-------3---|------------|-----3-------3---|-------------|
|-----------------|------------|-----------------|------1-331--|
|-1-1---1-1-1---1-|------------|-1-1---x-1-1---1-|-1-----------|
|-----------------|----1--3--4-|-----------------|-------------|

|----------------|--------------|-----------|-------------|
|----1-3-1-------|--------------|-----------|-------55----|
|----------3-----|-----13-1-----|---------5-|---------5---|
|-4----------4-3-|----3-----3-1-|----3------|----3*-----3-|

Chorus

|---------------|-------------|----------------|--------------|
|------6--------|-------------|-----6----------|--------------|
|----6---6------|----3--x3----|---6----6-3-----|----3--333----|
|-4---------4-3-|--3-------6--|-4----------4-3-|--3--------6--|

|-------------|-------------|
|-------5-----|-------------|
|-------------|-------------|
|-4---4-----1-|----1-3--3-1-|

|----------------|--------------|----------------|--------------|
|------6---------|--------------|------6---------|--------------|
|--------6-3-----|----3--3-3----|----6---6-3-----|----3--333----|
|-4--4-------4-3-|--3--------6--|-4----------4-3-|--3--------6--|

|-------------|--------------|
|-------------|--------------|
|-------------|------------1-|
|-4---4-3---1-|----1-1-3-4---|

|-------------|--------------|--3-3-----------|---------------|
|-------------|--------------|----------------|--/8-6--6-6-6--|
|-----1-1-1-1-|----1-------1-|------1-1-1-1---|---------------|
|-------------|------4-1-4---|--------------4-|---------------|

Verse

|----3-3--------|------------|-----3-3-----3---|------------|
|---------------|------------|-----------------|----1--1----|
|-1------1-1--1-|------------|-1-1-----1-1---1-|------------|
|---------------|----1--3--4-|-----------------|----------x-|

|----------------|--------------|--------------|------------|
|----1-3-1-------|--------5-----|--------------|------------|
|----------3-----|--------------|------------1-|------------|
|-4----------4-3-|----333---3-1-|----1-1-3-4---|----1--3--4-|

|-----3------3---|------------|-----3------3---|--------------|
|----------------|------------|----------------|----111-331---|
|-1-1----1-1---1-|------------|-1-1----1-1---1-|------------1-|
|----------------|----1--3--4-|----------------|--------------|

|----------------|--------------|-----------|-------------|
|----1-3-1-------|--------------|-----------|-------55----|
|----------3-----|-----13-1-----|---------5-|---------5---|
|-4----------4-3-|----3-----3-1-|----3------|----3------3-|

Chorus

|----------------|--------------|-----------------|--------------|
|------66--------|--------------|-------6---------|--------------|
|--------6-3-----|----3--333----|---x-6---6-3-----|----3--333----|
|-4--4-------4-3-|--3--------6--|-4-----------4-3-|--3--------6--|

|--------------|----------------|
|----6---------|----------555-5-|
|--------------|----------------|
|-4----4-3---1-|--1-1-1-3-------|

|----------------|--------------|----------------|-------------|
|------6---------|--------------|-----6----------|-------------|
|--------6-3-----|----3--333----|---6----6-3-----|----3--33----|
|-4--4-------4-3-|--3--------6--|-4----------4-3-|--3-------6--|

|-------------|---------------|
|-------------|---------------|
|-------------|-------------1-|
|-4---4-3---1-|--1--1-x-3-3---|

|--------------|--------------|--------------|---------------|
|--------------|--------------|--------------|--6-6----------|
|----1-1-1-1-1-|----1-------1-|----1-1-1-1---|-------------0-|
|--------------|------1-3-4---|------------4-|-------4-3-4---|

Middle Eight

|-----3-3---333---|----3---------|-----3-3-----3---|----3-----------|
|-----------------|--------------|-----------------|------111-331---|
|-1-1-----1-----1-|--1-----------|-1-1-----1-1---1-|--1-----------1-|
|-----------------|------1--3--4-|-----------------|----------------|

|-----------------|-----------------|-----------|-------------|
|-------3---------|-5---------------|-----------|-------55----|
|-----6---6-3-----|---------3-------|---------5-|---------5---|
|-4-xx--------4-36|---3-3-36--6-3-1-|----3------|----3------3-|

Chorus

|-----------------|--------------|-----------------|--------------|
|---6---6---------|--------------|-------6---------|--------------|
|---------6-3-----|----3--333----|-----6---6-3-----|----3--333----|
|-4---4-------4-3-|--3--------6--|-4-4---------4-3-|--3--------6--|

|-----------------|----------------|
|-----6-----5-5---|----------5-----|
|-----------------|----------------|
|-4-4---4-3-----1-|--0-1-2-3---3-3-|

|-----------------|--------------|-----------------|--------------|
|---6---66--------|--------------|-------6---------|--------------|
|---------6-3-----|----3--333----|---3-6---6-3-----|----3--333----|
|-4---4-------4-3-|--3--------6--|-4-----------4-3-|--3--------6--|

|---------------|----------------|
|---------5-5---|----------------|
|---------------|----------------|
|-4---4-3-----1-|--0-1-2-3-x33-3-|

|----------------|--------------|-----------------|--------------|
|------6---------|--------------|-------6---------|--------------|
|--------6-3-----|----3--333----|---3-6---6-3-----|----3--333----|
|-4--4-------4-3-|--3--------6--|-4-----------4-3-|--3--------6--|

|---------------|----------------|
|----6----------|----------------|
|---------------|----------------|
|-4----4-3--3-1-|--0-1-2-3-333-3-|

Breakdown (very quiet)

|-------------|--------------|-------------|-------------|
|----6--------|--------------|------6------|-------------|
|-------------|----3--3------|----6---6----|----3--3-----|
|-4-------4-3-|--3-------6-6-|-4-----------|--3-------6--|

|-------------|-------------|
|-------------|-------------|
|-------------|-------------|
|-4---4-3---1-|----1-3--3-3-|

|--------------|-------------|---------------|-------------|
|--------------|-------------|---------------|-------------|
|--------------|----3--3-----|---------------|----3--3-----|
|-4--4-4-4---3-|--3-------6--|-4--4--4-4-4-3-|--3-------6--|

|---------------|-----------|
|---------------|-----------|
|---------------|-----------|
|-4--4-4-3--3-1-|-----3--3--|

|---------------|-------------|----------------|--------------|
|----6-6--------|-------------|----6-6---------|--------------|
|---------------|----3--3-----|--------6-3-----|----3--3-3----|
|-4------4--4-3-|--3-------6--|-4----------4-3-|--3--------6--|

|--------------|----------------|
|--------------|--------------5-|
|--------------|----------xx----|
|-4--4-4-3---1-|--0-1-2-3---3---|

Ending

|----------------|--------------|-----------------|--------------|
|------6---------|--------------|-------6---------|--------------|
|--------6-3-----|----3--333----|---3-6---6-3-----|----3--333----|
|-4--4-------4-3-|--3--------6--|-4-----------4-3-|--3--------6--|

|--------------|------------|
|--------------|------------|
|--------------|------------|
|-4--4-4-3---1-|----1-3--3--|

|--------------|-------------|-----------|---------*|
|--------------|-------------|----1------|---------*|
|-1---1-1-1--1-|--1----------|-1---------|---------*|
|--------------|-----1--3--4-|-----------|---------*|


----------------------------------
Living a Little, Laughing a Little
----------------------------------

84BPM, 4/4

Intro

|------------|-----------------|-----------|-----------|
|------------|-1-1-1-1-1-1-1-1-|---------1-|---------1-|
|------------|-----------------|-----------|-----------|
|-1--1----1--|-----------------|-1---------|-1---------|

|-----------|----------|---------|
|---------1-|----------|---------|
|-----------|----------|---------|
|-1---------|-1--------|---------|

Verse

|--------------|--------------|----------|-------------|
|--------------|--------------|----------|-------2-3---|
|------------3-|-----3-5--3---|--------5-|-----5-----3-|
|-1----3-5-6---|---5--------6-|----------|-------------|

|--------------|--------------|-----------|------------|
|------------3-|-----3-5--3---|---------5-|------5-3---|
|-1----6-5-6---|---5--------6-|------5----|----------6-|
|--------------|--------------|-----------|------------|

|---------|-8------------|
|---------|------1-1-1-1-|
|---------|--------------|
|---------|--------------|

|--------------|--------------|----------|---------------|
|--------------|--------------|----------|-----2-3-2-3---|
|------------3-|-----3-5--3---|--------5-|---5---------3-|
|-1----3-5-6---|---5--------6-|----------|---------------|

|--------------|--------------|-----------|------------|
|------------3-|-----3-5--3---|---------5-|------5-3---|
|-1----6-5-6---|---5--------6-|------5----|----------6-|
|--------------|--------------|-----------|------------|

|---------|-----------------|
|---------|-4-4-4-4-1-1-1---|
|---------|-----------------|
|---------|---------------1-|

Chorus

|--------------|--------------|----------------|---------------|
|--------------|---------35---|----------------|---------------|
|--------1-----|--------5-----|----6*-x6-6-6---|----6*----6----|
|----111---1-3-|----333-----4-|-4------------4-|-4-----x4----1-|

|--------------|--------------|----------------|-----------|
|--------------|---------35---|----------------|-----------|
|--------1-----|--------5-----|----6*-x6-6-6---|----6------|
|----111---1-3-|----333-----4-|-4------------4-|-4---------|

Verse

|--------------|--------------|-----------|-------------|
|--------------|--------------|-----------|-------2-3---|
|------------3-|-----3-5--3---|---------5-|-----5-----3-|
|-1----3-5-6---|---5--------6-|------5----|-------------|

|--------------|--------------|-----------|------------|
|------------3-|-----3-5--3---|---------5-|------5-3---|
|-1----6-5-6---|---5--------6-|------5----|----------6-|
|--------------|--------------|-----------|------------|

|---------|-8------------|
|---------|------1-1-1-1-|
|---------|--------------|
|---------|--------------|

|--------------|--------------|-----------|----------------|
|--------------|--------------|-----------|------2-322-3---|
|------------3-|-----3-5--3---|---------5-|--535---------3-|
|-1----3-5-6---|---5--------6-|------5----|----------------|

|--------------|--------------|-----------|------------|
|------------3-|-----3-5--3---|---------5-|------5-3---|
|-1----6-5-6---|---5--------6-|------5----|----------6-|
|--------------|--------------|-----------|------------|

|---------|-----------------|
|---------|-4-4-4-4-1-1-1---|
|---------|-----------------|
|---------|---------------1-|

Chorus

|--------------|--------------|----------------|----------------|
|--------------|---------35---|----------------|----------------|
|--------1-----|------5-5-----|----6*-x6-6-6---|----6*----6-6---|
|----111---1-3-|----3-------4-|-4------------4-|-4-----x4-----1-|

|----------------|--------------|----------------|----------------|
|----------------|---------35-6-|-6--------------|----------------|
|--1-------1-----|--------5-----|----6*-x6-6-6---|----6*----6-6---|
|----1-111---1-3-|----333-------|--------------4-|-4-----x4-----1-|

|----------------|--------------|----------------|---------------|
|----------------|---------35-6-|-6--------------|---------------|
|--1-------1-----|--------5-----|----6*-x6-6-6---|----6*----6----|
|----1-111---1-3-|----333-------|--------------4-|-4-----x4----1-|

|----------------|--------------|----------------|----------------|
|----------------|-----353-35---|----------------|----------------|
|--1-------1-----|----5---5-----|----6*-x6-6-6---|----6*----6-6---|
|----1-1-1---1-3-|------------4-|-4------------4-|-4-----x4-----1-|

|----------------|--------------|----------------|----------------|
|----------------|---------35-6-|-6--------------|----------------|
|--1-------1-----|--------5-----|----6*-x6-6-6---|----6*----6-6---|
|----1-1-1---1-3-|----333-------|--------------4-|-4-----x4-----1-|

|----------------|--------------|----------------|----------------|
|----------------|---------35-6-|-6--------------|----------------|
|--1-------1-----|------535-----|----6*-x6-6-6---|----6*----6-6---|
|----1-111---1-3-|----3---------|--------------4-|-4-----x4-----1-|

|----------------|--------------|----------------|----------------|
|----------------|---------35-6-|-6--------------|----------------|
|--1-------1-----|--------5-----|----6*-x6-6-6---|----6*----6-6---|
|----1-111---1-3-|----333-------|--------------4-|-4-----x4-----1-|

|----------------|--------------|----------------|----------------|
|----------------|-----353-35-6-|-6--------------|----------------|
|--1-------1-----|----5---5-----|----6*-x6-6-6---|----6*----6-6---|
|----1-111---1-3-|--------------|--------------4-|-4-----x4-----1-|

|----------------|--------------|----------------|----------------|
|----------------|---------35-6-|-6--------------|----------------|
|--1-------1-----|------535-----|----6*-x6-6-6---|----6*----6-6---|
|----1-111---1-3-|----3---------|--------------4-|-4-----x4-----1-|

|----------------|--------------|----------------|----------------|
|----------------|---------35-6-|-6--------------|----------------|
|--1-------1-----|--------5-----|----6*-x6-6-6---|----6*----6-6---|
|----1-111---1-3-|----333-------|--------------4-|-4-----x4-----1-|

Ending

|---------------|-------------|----------------|-----------------*|
|---------------|-------------|----------------|-----------------*|
|----1-3-5-6--5-|--4--------6-|--66666666666666|-6666666666666666*|
|--3------------|------4-4----|----------------|-----------------*|


---------------------------
One of a Kind (Love Affair)
---------------------------

96BPM, 4/4

Intro

|---------|---------|
|---------|---------|
|---------|---------|
|---------|---------|

|---------|---------|---------|-----------|
|---------|---------|---------|-----------|
|---------|---------|---------|-------6-8-|
|---------|---------|---------|-----------|

|------------|-------------|------------|--------------|
|-6----------|-------------|-6----------|--------6-6---|
|--------6-8-|---------6-8-|--------6-8-|------68-8----|
|-------x----|-4----8-x----|-------x----|-4----------4-|

Chorus

|----------------|-----------------|-----------------|-----------------| *Dotted eighth
|------------6---|------123-13-----|-----------------|-------------1---|
|-------------6--|-3-3-3---------33|-4-44*-4-3-3-3-32|-1-11----1x1---4-|
|--44-4*-4-4---4-|-------------1---|--------4--------|------141--------|

|----------------|-----------------|
|----------------|-----------6-6---|
|--44*-4-3-3-3-3-|-1-11*-1-68-8----|
|-------4-------4|---------------4-|

|----------------|-----------------|-----------------|-----------------|
|------------6---|------12x31------|-----------------|-------------1---|
|-------------6--|-3-3-3-----3---3-|-4-44*-4-3-3-3-3-|-1-11---1*-1---4-|
|--44-4-x4-4---4-|-------------1---|--------4-------4|------14---------|

|----------------|-----------------|----------------|-----------------|
|----------------|-----------------|----------------|-----------6-6---|
|--44*-4-3-33*-32|-1-11*-1-1-1-4-6-|--66-6-6*-6-----|-6-66-6*-68-8----|
|-------4--------|-----------------|------------6-8-|---------------4-|

Verse

|----------------|-------------------|-----------------|-----------------|
|---------6----8-|-6-66*-666-/10-6---|-----------------|-----------6-6---|
|----------666---|----------8-----86-|-4-44*-4-3-33*-32|-1-11*-1-68-8----|
|--44-4*-4-------|-------------------|--------4--------|---------------4-|

|----------------|--------------------|-----------------|-----------------|
|---------6----8-|-6-66*-6-/86/10-6---|-----------------|-------------1---|
|----------666---|-----------------86-|-4-44*-4-3-33*-32|-1-11----1x1---4-|
|--44-4-x4-------|--------------------|--------4--------|------14---------|

|----------------|-----------------|--------8-------|-----------------|
|----------------|-----------------|----------------|-----------6-6---|
|--44*-4x3-33*-3x|-1-11*-1-1-1-4-66|--66-6-6--6-----|-6-66-6*-68-8----|
|----------------|-----------------|------------6-8-|---------------4-|

Chorus

|-----------------|-----------------|----------------|-----------------|
|-6-----------6---|------123-13-----|----------------|-------------1---|
|--------------6--|-3-33----------3-|-4-44*-4-3-3--3-|-1-11----1-1---4-|
|---44-4-x4-4---4-|-------------1---|--------4------4|------141--------|

|-6---------------|-------1-1-------|
|-----------------|-----13-3--331---|
|---44*-4-3-33*-3-|-1-1-----------11|
|----------------x|-----------------|

|-----------------|-----------------|-----------------|-----------------|
|-------------6---|------123-13-----|-----------------|-----1-------1---|
|--------------6--|-3-3*----------3-|-4-44*-4-3-33*-3-|-1-1x-1--1x1---4-|
|-4*-4-4*-4-4---4-|-------------1---|--------4-------4|-------41--------|

|-6---------------|-----------------|----------------|-----------------|
|-----------------|-----------------|----------------|-----------6-6---|
|---44*-4-3-33*-3-|-1-11--111-1-4-6-|--66-6-66-6-----|-6-66-6*-68-8----|
|--------4-------4|------x----------|------------6-8-|---------------4-|

Instrumental

|-----------------|-----------------|-----------------|-----------------|
|----6-----/8-6---|-------1231------|-----------------|-------------1---|
|-----6--------6--|-3-3*-3----3---3-|-4-44*-443-33*-3-|-1-11---1--1---4-|
|--44--4-44-----4-|-------------1---|----------------4|------14--4------|

|---------------|-------1-1-------|
|---------------|-----13-3--331---|
|--4-x4-3-33*-3-|-1-1-----------11|
|------4-------4|-----------------|

Chorus

|-----------------|---------------|-------------5---|-------1-1-------|
|-------------6---|----12331------|-----------------|-----13-3--331---|
|--------------6--|-3-------3----3|-4-44*-4-3-33--3-|-1-1-----------11|
|-4*-4-4-x4-4---4-|----------141--|--------4-------4|-----------------|

|-----------------|-----------------|---6---6---5---5-|---3---1-1-------|
|-------------6---|------123-13-----|-----------------|-----13-3--331---|
|--------------6--|-3-33----------3-|-4---4---3---3---|-1-------------11|
|-4*-4-4-x4-4---4-|-------------1---|-----------------|-----------------|

|-----------------|-----------------|-----------------|-------1-1-------|
|-------------6---|------123-13-----|-----------------|-----13-3--331---|
|--------------6--|-3-3*----------3-|-4-44*-4-3-33*-3-|-1-1-----------11|
|-4*-4-4-x4-4---4-|-------------1---|--------4-------4|-----------------|

|-----------------|-----------------|-----------------|-------1-1-------|
|--------6----6---|-------1231------|-----------------|-----13-3--331---|
|--------------6--|-3-3*-3----3---3-|-4-44*-4-3-33*-3-|-1-1-----------11|
|-4*-4-4--4-4---4-|-------------1---|--------4-------4|-----------------|

|-----------------|-----------------|-----------------|-------1-1-------|
|--------6----6---|------123-13-----|-----------------|-----13-3--331---|
|--------------6--|-3-3*----------3-|-4-44*-4-3-33*-3-|-1-1-----------11|
|-4*-4-4--4-4---4-|-------------1---|--------4-------4|-----------------|

|----------|---------|-----------------|--------------*|
|----------|---------|-----------------|--------------*|
|----------|---------|-----------------|--------------*|
|-4--------|---------|-4444444444444444|-444444444----*|


-------------
Then Came You
-------------

128BPM, 4/4

Intro

[long introduction]

|-------------|------------|----------------|-----------------|
|-------------|------------|----------------|-----------------|
|-------------|-----3-3--6-|----6---6---6---|-6---6---6-------|
|-6---5--5-3--|------------|--6---6---6---6-|---6---6---6-6-1-|

|---------------|--------2-------|---------------|--------2-------|
|-------------3-|------3---3---3-|-------------3-|------3---3---3-|
|---------3-5---|--335-------5---|---------3-5---|--33x-------5---|
|--1-1--1-------|----------------|--1-1--1-------|----------------|

Verse

|---------------|---------------|---------------|--------------|
|-----------3---|---------------|---------------|--------------|
|-------3-5-----|---------------|---------3-4-5-|--5-5---------|
|-1--1--------1-|--1-1--1-3-4-5-|--5-5--5-------|------5--6--8-|

|--------------|---------------|--------------|--------------|
|-------8-8--56|-7-7--x--------|--------------|--------------|
|-----8--------|-------7-------|-----------3--|-3--3--3-3----|
|-6------------|--------5-5--5-|-3--3-5--6----|------------1-|

|---------------|--------------|---------------|--------------|
|-----------3---|--------------|---------------|--------------|
|-------3-5-----|--------------|---------3-4-5-|--5-5---------|
|-1--1--------1-|--1-1---3-4-5-|--5-5--5-------|------5--6--8-|

|--------------|---------------|--------------|-----------------|
|-------8-8--56|-7-7--7--------|--------------|-----------------|
|-----8--------|-------7-------|-----------3--|-3-5-3-3-----3-x-|
|-6------------|--------5-5--5-|-3--3-5--6----|---------5-6-----|

Chorus

|--------------|--------------|--------------|---------------|
|--------------|--------------|--------------|---------------|
|------5--5----|--------------|---3-4-5-5----|---------------|
|-6--6------3--|---1-3-5-5--6-|------------3-|--3-3-5--1-3-5-|

|--------------|--------------|----------------|-------------|
|--------------|--------------|----------------|-------------|
|------5--5----|-------3-3--6-|----6---6---6---|-6-----------|
|-6--6------3--|--3-3---------|--6---6---6---6-|------6-6--1-|

|---------------|-----------------|---------------|-----------------|
|-------------3-|------3-/7-3---3-|-------------3-|------3-/7-3---3-|
|---------3-5---|--3-5--------5---|---------3-5---|--335--------5---|
|--1-1--1-------|-----------------|--1-1--1-------|-----------------|

Verse

|---------------|---------------|---------------|--------------|
|-----------3---|---------------|---------------|--------------|
|-------3-5-----|---------------|---------3-4-5-|--5-5---------|
|-1--1--------1-|--1-1--1-3-4-5-|--5-5--5-------|------5--6--8-|

|--------------|---------------|--------------|----5------------|
|-------8-8--56|-7-7--7--------|--------------|--5--5-----------|
|-----8--------|-------7-------|-----------3--|------3-----3----|
|-6------------|--------5-5--5-|-3--3-5--6----|--------5-6---1--|

|---------------|---------------|---------------|--------------|
|-----------3---|---------------|---------------|--------------|
|-------3-5-----|---------------|---------3-4-5-|--5-5---------|
|-1--1--------1-|--1-1--1-3-4-5-|--5-5--5-------|------5--6--8-|

|--------------|---------------|--------------|-----------------|
|-------8-8--56|-7-7--x--------|--------------|-----------------|
|-----8--------|-------7-------|-----------3--|-3-5-3-3-----3---|
|-6------------|--------5-5--5-|-3--3-5--6----|---------5-6---5-|

Chorus

|--------------|--------------|--------------|---------------|
|--------------|--------------|--------------|---------------|
|------5--5----|--------------|---3-4-5-5----|---------------|
|-6--6------3--|---1-3-5-5--6-|------------3-|--3-3-5--1-3-5-|

|--------------|--------------|----------------|-------------|
|--------------|--------------|----------------|-------------|
|------5--5----|-------3-3--6-|----6---6---6---|-6-----------|
|-6--6------3--|--3-3---------|--6---6---6---6-|------6-6--1-|

|---------------|-----------------|---------------|----------------|
|-------------3-|------3-/7-3---3-|-------------3-|----3*-x2-3-4-5-|
|---------3-5---|--335--------5---|---------3-5---|--5-------------|
|--1-1--1-------|-----------------|--1-1--1-------|----------------|

Instrumental

|---------------|--------4-------|---------------|--------4-------|
|-----------2-5-|------5---5---5-|-----------2-5-|------5---5---5-|
|--5------5-----|--557-------7---|---------5-----|--557-------7---|
|----3--3-------|----------------|--3-3--3-------|----------------|

|---------------|--------4-------|---------------|----------------|
|-----------2-5-|------5---5---5-|-----------2-5-|------2-5---2---|
|---------5-----|--557-------7---|---------5-----|--2-55----5---2-|
|--3-3--3-------|----------------|--3-3--3-------|----------------|

Chorus

|-----------2-2-|--------------|---------------|--------------|
|------2--2-----|--------------|----0-1-2-2----|--------------|
|-3--3----------|-------2-2--3-|--3------------|-----2------2-|
|---------------|---3-5--------|-------------5-|--5-----335---|

|--------------|--------------|----------------|-------------|
|------2--2----|------------3-|--------3-------|-3-----------|
|-3--3---------|-------5-5----|--33--3---33--3-|------3-3----|
|-----------5--|--5-5---------|----1-------1---|-----------3-|

|----------------|----------------|
|------------2-5-|------2-552-----|
|----------5-----|--2-55------5-2-|
|-3-3-3--3-------|----------------|

|--------------|--------------|---------------|---------------|
|------2--2----|--------------|----0-1-2-2----|---------------|
|-3--3---------|-------2-2--3-|--3------------|------2------2-|
|-----------5--|---3-5--------|-------------5-|--5-x----335---|

|--------------|--------------|----------------|-------------|
|------2--2----|------------3-|--------3-------|-3-----------|
|-3--3---------|-------5-5----|--33--3---33--3-|------3-3----|
|-----------5--|--5-5---------|----1-------1---|-----------3-|

|---------------|----------------|
|-----------2-5-|------2-552-----|
|---------5-----|--2-55------5-2-|
|--3-3--3-------|----------------|

Ending

|--------------|------------|----------------|-----------------|
|------2--2----|------------|----------------|-----------------|
|-3--3---------|-----5-5----|----------------|-----------------|
|-----------5--|----------3-|--33333333333333|-3333333333333333|

|--------------|--------------|--------------|---------------|
|------2--2----|--------------|---0-1-2-2----|---------------|
|-3--3---------|-------2-2--3-|--------------|------2------2-|
|-----------5--|---3-5--------|------------5-|--5-5----3-5---|

|--------------*|
|------2--2----*|
|-3--3---------*|
|-----------5--*|


-----
Sadie
-----

80BPM, 4/4

Intro

|---------|---------|---------|---------|
|---------|---------|---------|---------|
|---------|---------|---------|---------|
|---------|---------|---------|---------|

|-------------|-----------|-----------|-----------|
|-----4-7-----|-----4-----|-----------|-----------|
|-5-7---------|-4---------|-5---------|-5---7-----|
|-------------|-----------|-----5-----|-----------|
               2/4
|-------------|-------|
|-----4-------|-------|
|-5-7---------|-------|
|-------5-----|-5-5---|

Verse, 4/4

|----------------|---------|----------------|---------|
|----------------|---------|----------------|---------|
|---2-4----------|---------|---2-4----------|---------|
|-5-----0--2-5-2-|---------|-5-----0--2-5-2-|---------|

|---------------|--8---------|------------|--9---------|
|---------------|------------|--9---------|------------|
|-------4---4-6-|----6-------|----------7-|----7-------|
|-5-5-7---------|----------7-|----7-------|----------4-|

|----------------|----------|----------------|---------|
|----------------|----------|----------------|---------|
|---2-4----------|----------|---2-4----------|---------|
|-5-----0--2-5-2-|--------4-|-5-----0--2-5-2-|---------|

|---------------|-------------|-------------|-------------|
|---------------|-------------|-------------|-------------|
|-------4---4-6-|-----6-6-4---|-----------4-|--7-7---47---|
|-5-5-7---------|-----------7-|-----7-7-7---|-----------5-|

Chorus

|----------------|------------|----------------|------------|
|-------/9p7-----|------------|-------/9p7-----|------------|
|-5---5------9---|------7-----|-5---5------9---|------7-----|
|--------------9-|----9----5--|--------------9-|----9----5--|

|----------------|---------11------|---------------|------------------|
|-------/9p7-----|------------11---|---------------|------------------|
|-5---5------9-7-|----7-9--------9-|---------------|----------7--9-7--|
|----------------|--9--------------|-7-7--8-9-9--9-|-10-10-10---------|

Verse

|----------------|---------|----------------|---------|
|----------------|---------|----------------|---------|
|---2-4----------|---------|---2-4----------|---------|
|-5-----0--2-5-2-|---------|-5-----0--2-5-2-|---------|

|---------------|----------|------------|--9---------|
|---------------|----------|--9---------|------------|
|-------4---4-6-|----------|----------7-|----7-------|
|-5-5-7---------|--------7-|----7-------|----------4-|

|----------------|----------|----------------|---------|
|----------------|----------|----------------|---------|
|---2-4----------|----------|---2-4----------|---------|
|-5-----0--2-5-2-|--------4-|-5-----0--2-5-2-|---------|

|---------------|-------------|-------------|-------------|
|---------------|-------------|-------------|-------------|
|-------4---4-6-|-----6-6-4---|-----------4-|--7-7---47---|
|-5-5-7---------|-----------7-|-----7-7-7---|-----------5-|

Chorus

|----------------|------------|----------------|------------|
|-------/9p7-----|------------|-------/9p7-----|------------|
|-5---5------9---|------7-----|-5---5------9---|------7-----|
|--------------9-|----9----5--|--------------9-|----9----5--|

|----------------|---------------|--------------|------------------|
|-------/9p7-----|---------------|--------------|------------------|
|-5---5------9-7-|----7-9--9-----|--------------|----------7--9-7--|
|----------------|--9--------9-8-|-7--75789--579|-10-10-10---------|

|----------------|-----------|----------------|---------------|
|-------/9p7-----|-----------|-------/9p7-----|---------7-7---|
|-5---5------9---|-----7-----|-5---5------9---|------7h9-9-7--|
|--------------9-|--------5--|--------------9-|----9--------5-|

|----------------|---------1111-----|---------------|------------------|
|-------/9p7-----|-------------11---|---------------|------------------|
|-5---5------9-7-|----7-9---------9-|---------------|----------7--9-7--|
|----------------|--9---------------|-7-7--8-9-9--9-|-10-10-10---------|

||-----------------|------------|----------------|------------|
||o-------/9p7-----|------------|-------/9p7-----|------------|
||o-5---5------9---|------7-----|-5---5------9---|------7-----|
||---------------9-|----9----5--|--------------9-|----9----5--|

|----------------|---------------|---------------|-------------------||
|-------/9p7-----|---------------|---------------|------------------o||
|-5---5------9-7-|----7-9--9-----|---------------|----------7--9-7--o||
|----------------|--9--------9-8-|-7-7--8-9-9--9-|-10-10-10----------||

|----------------|---------------|----------------|--------------|
|-------/9p7-----|---------7-7---|-------/9p7-----|--------------|
|-5---5------9---|------7h9-7-x--|-5---5------9---|----987-------|
|--------------9-|----9--------5-|--------------9-|--------765-7-|

|----------------|---------1111-----|--------------|------------------|
|-------/9p7-----|-------------11---|--------------|------------------|
|-5---5------9-7-|----7-9---------9-|--------------|----------7--9-7--|
|----------------|--9---------------|-7--75789--579|-10-10-10---------|

|-------------|------------|----------------|---------------|
|-------------|------------|-------/9p7-----|---------7-7---|
|-5---5---9---|------7-----|-5---5------9---|------7h9-9----|
|-----------9-|----9----5--|--------------9-|----9--------5-|

|----------------|---------------|---------------|------------------|
|-------/9p7-----|---------------|---------------|------------------|
|-5---5------9-7-|----7-9--9-----|---------------|----------7--9-7--|
|----------------|--9--------9-8-|-7-7--8-9-9--9-|-10-10-10---------|

|---------------|-----------|----------------|-----------|
|------/9p7-----|-----------|-------/9p7-----|-----------|
|-5---------9---|-----7-----|-5---5------9---|-----7-----|
|-------------9-|--------5--|--------------9-|--------5--|

|----------------|---------------|-------------|------------------|
|-------/9p7-----|---------------|-------------|------------------|
|-5---5------9-7-|----7-9--99----|-------------|----------7--9-7--|
|----------------|--9--------9-8-|-7---8-9---9-|-10-10-10---------|

|----------------|------------|----------------|-----------| *dotted eighth
|-------/9p7-----|------------|-------/9p7-----|-----------|
|-5---5------9---|-----7*-7---|-5---5------9---|-----7-----|
|--------------9-|---------5--|--------------9-|--------5--|

|----------------|---------------|---------------|------------------|
|-------/9p7-----|---------------|---------------|------------------|
|-5---5------9-7-|----7-9--9-----|---------------|----------7--9-7--|
|----------------|--9--------9-8-|-7-7--8-9-9--9-|-10-10-10---------|

|----------------|------------|----------------|------------|
|-------/9p7-----|------------|-------/9p7-----|------------|
|-5---5------9---|------7-----|-5---5------9---|------7-----|
|--------------9-|----9----5--|--------------9-|----9----5--|

|----------------|---------11------|---------------|------------------|
|-------/9p7-----|------------11---|---------------|------------------|
|-5---5------9-7-|----7-9--------9-|---------------|----------7--9-7--|
|----------------|--9--------------|-7-7--8-9-9--9-|-10-10-10---------|

|----------------|------------|----------------|--------------|
|-------/9p7-----|------------|-------/9p7-----|--------------|
|-5---5------9---|------7-----|-5---5------9---|----987-------|
|--------------9-|----9----5--|--------------9-|--------765-7-|

|---------------|---------11------|---------------|-------------------|
|------/9p7-----|------------11---|---------------|-------------------|
|----5------9-7-|----7-9--------9-|---------------|----------7--9-7---|
|---------------|--9--------------|-7-7--8-9-9--9-|-10-10-10-------575|

|-----------------|---------------|----------------|---------------|
|-----------------|---------7-7---|-------/9p7-----|--------/9-7---|
|-5-4-2-----245-4-|----9-7h9-9----|-5---5------9---|----9-7-----7--|
|-------5-25------|-------------5-|--------------9-|-------------5-|

|----------------|---------1111-----|---------------|------------------|
|-------/9p7-----|-------------11---|---------------|------------------|
|-5---5------9-7-|----7-9---------9-|---------------|----------7--9-7--|
|----------------|--9---------------|-7-7--8-9-9--9-|-10-10-10---------|

|-----------|---------|---------|---------*|
|-----------|---------|---------|---------*|
|-5--5------|---------|---------|---------*|
|-----------|---------|---------|---------*|


----------------------------
How Could I Let You Get Away
----------------------------

156BPM, 4/4

Intro

|-----------|-------------|-----------|-------------|
|-----------|-------------|-----------|-------------|
|-----------|-------------|-----------|-------------|
|-3------3--|-----3-3-3-3-|-3------3--|-----3-3-3-3-|

|-----------|------------|-----------|----------|
|-----------|------------|-----------|----------|
|-----------|---------2--|-3------2--|----------|
|-3------3--|-----3-5----|-----------|---5------|

|-------------|----------|
|-------------|----------|
|-5--5--5--5--|-5--------|
|-------------|----------|

Verse

|-----------|-----------|-----------|-----------|
|-----------|-----------|-----------|-----------|
|-----------|-----------|-----------|-3---------|
|-3-------3-|-3----3----|-3------3--|------0----|

|-----------|-----------|-----------|----------------|
|-----------|-----------|-----------|-----5--5-------|
|-----------|-3---------|-----------|-5-7------7-5---|
|-5------5--|------0----|-5------5--|--------------7-|

|-----------|-----------|-----------|-----------|
|-----------|-----------|-----------|-----------|
|-----------|-----------|-----------|-3---------|
|-3-------3-|-3----3----|-3------3--|------0----|

|-----------|-----------|-----------|--------------|
|-----------|-----------|-----------|--------------|
|-----------|-3---------|-----------|--------------|
|-5------5--|------0----|-5-------0-|-5-0-5--3--4--|

Pre-Chorus

|-----------|-------------|-------------|--------------|
|-----------|-------------|------7------|----------5---|
|-----------|-------2-----|--------7----|-5----5-7---7-|
|-----5---0-|-5--5-----5--|---5------5--|--------------|

|------------|-------------|-------------|---------------|
|-5--5-------|-5--5--------|-------------|---------------|
|----------5-|-------5-----|-------------|-2--------2----|
|------------|-----------0-|-3--3----3-2-|---0-0--0---3--|

Chorus

|------------|------------|-------------|--------------|
|------------|------------|------7------|----------5---|
|------------|------2-----|--------7----|-5----5-7---7-|
|-5----5---0-|-5-------5--|---5------5--|--------------|

|-----------|-------------|------------|---------------|
|-5---------|-5--5--------|------------|---------------|
|---------5-|-------5-----|------------|-2---2----2----|
|-----------|-----------0-|-3--3----2--|---0----0---3--|

|------------|------------|-------------|--------------|
|------------|------------|------7------|----------5---|
|------------|-------2----|--------7----|-5----5-7---7-|
|-5----5---0-|-5--5-------|---5------5--|--------------|

|------------|-------------|------------|--------------|
|-5--5-------|-5--5--------|------------|-----2--------|
|----------5-|-------5-----|------------|-2-----5------|
|------------|-----------0-|-3--3----3--|---------0-2--|

Verse

|-----------|-----------|-----------|-----------|
|-----------|-----------|-----------|-----------|
|-----------|-----------|-----------|-3---------|
|-3-------3-|-3----3----|-3------3--|------0----|

|-----------|-----------|-----------|----------------|
|-----------|-----------|-----------|-----5--5-------|
|-----------|-3---------|-----------|-5-7------7-5---|
|-5------5--|------0----|-5------5--|--------------7-|

|-----------|-----------|------------|-----------|
|-----------|-----------|------------|-----------|
|-----------|-----------|------------|-3---------|
|-3-------3-|-3----3----|-3------3-x-|------0----|

|------------|-----------|-----------|--------------|
|------------|-----------|-----------|--------------|
|------------|-3---------|-----------|--------------|
|-5------5-x-|------0----|-5-------4-|-5-4-5--3--4--|

Pre-Chorus

|------------|-------------|-------------|---------------|
|------------|-------------|------7------|-----------5---|
|------------|-------2-----|--------7----|-5---x-5-7---7-|
|-5----5---0-|-5--5-----5--|---5------5--|---------------|

|------------|-------------|-------------|-------------|
|-5--5-------|-5--5--------|-------------|-------------|
|----------5-|-------5-----|-------------|-------------|
|------------|-----------0-|-3--3----3-2-|-0--0--0--3--|

Chorus

|------------|------------|-------------|--------------|
|------------|------------|------7------|----------5---|
|------------|------2-----|--------7----|-5----5-7---7-|
|-5----5---0-|-5-------5--|---5------5--|--------------|

|------------|-------------|-------------|----------------|
|-5--5-------|-5--5--------|-------------|----------------|
|----------5-|-------5-----|-------------|-2---------2----|
|------------|-----------0-|-3--3----3-2-|---0-0-0-2---3--|

|------------|-------------|-------------|--------------|
|------------|-------------|------7------|----------5---|
|------------|-------2-----|--------7----|-5----5-7---7-|
|-5----5---0-|-5--5-----5--|---5------5--|--------------|

|------------|-------------|-------------|----4--------|
|-5--5-------|-5--5--------|-------------|-------------|
|----------5-|-------5-----|-------------|-------------|
|------------|-----------0-|-3--3----3-2-|-0-----0--3--|

Solo

|-----------|-------------|-------------|--------------|
|-----------|-------------|------7------|----------5---|
|-----------|-------2-----|--------7----|-5----5-7---7-|
|-----5---0-|-5--5-----5--|---5------5--|--------------|

|------------|-------------|-------------|-------------|
|-5--5-------|-5--5--------|-------------|-------------|
|----------5-|-------5-----|-------------|-------------|
|------------|-----------0-|-3--3----3-2-|-0--0--0--3--|

|------------|------------|-------------|--------------|
|------7-----|------------|------7------|----------5---|
|------------|------2-----|--------7----|-5----5-7---7-|
|-5--------0-|-5-------5--|---5------5--|--------------|

|------------|-------------|-------------|--------------|
|-5--5-------|-5--5--------|-------------|--------------|
|----------5-|-------5-----|-------------|-2------2--2--|
|------------|-----------0-|-3--3----3-2-|---0-0--------|

Chorus

|------------|-------------|-------------|--------------|
|------------|-------------|------7------|----------5---|
|------------|-------2-----|--------7----|-5----5-7---7-|
|-5----5---0-|-5--5-----5--|---5------5--|--------------|

|------------|-------------|-------------|---------------|
|-5--5-------|-5--5--------|-------------|---------------|
|----------5-|-------5-----|-------------|-2--------2----|
|------------|-----------0-|-3--3----3-2-|---0-0--0---3--|

|------------|-------------|-------------|--------------|
|------------|-------------|------7------|----------5---|
|------------|-------2-----|--------7----|-5----5-7---7-|
|-5----5---0-|-5--5-----5--|---5------5--|--------------|

|------------|-------------|-------------|---------------|
|-5--5-------|-5--5--------|-------------|---------------|
|----------5-|-------5-----|-------------|-2--------2-2--|
|------------|-----------0-|-3--3----3-2-|---0-0--0------|

|------------|-------------|-------------|--------------|
|------------|-------------|------7------|----------5---|
|------------|-------2-----|--------7----|-5----5-7---7-|
|-5----5---0-|-5--5-----5--|---5------5--|--------------|

|---------------|---------------|----------------|--------------|
|-5-5--5-3-3--3-|-2-2--2--------|-----5-3----5---|--------------|
|---------------|--------5-5----|-2-5------5---5-|-2s7-5--------|
|---------------|-------------5-|----------------|--------3--3--|

Break

|------------|--------------|----------|-----------------|
|------------|--------------|----------|-----5---5-------|
|------------|--------------|----------|-5-7---7---7-5---|
|-/5-------0-|-5---5--3-x-4-|-5--------|---------------7-|

|-----------|--------------|----------|--------------|
|-----------|--------2-----|----------|--------------|
|-----------|-----2----5---|----------|-3-3-------2--|
|-3-------0-|-3----------0-|-3--------|-----0--3-----|

|------------|--------------|----------|-----------------|
|------------|--------------|----------|-----5---5-------|
|------------|--------------|----------|-5-7---7---7-5---|
|-/5-------0-|-5---5--x-x-4-|-5--------|---------------7-|

|-----------|--------------|----------|----------------|
|-----------|--------x-x---|----------|----------------|
|-----------|-----2--------|----------|--3-------------|
|-3-------0-|-3----------x-|-3--------|----0-0-3-3-3-4-|

|-----------|--------------|----------|-----------------|
|-----------|--------------|----------|-----5---5-------|
|-----------|--------------|----------|-5-7---7---7-5---|
|-5-------0-|-5---5--x-x-4-|-5--------|---------------7-|

|-----------|--------------|----------|--------------|
|-----------|--------x-----|----------|--------------|
|-----------|-----2----5---|----------|-3-3-------2--|
|-3-------0-|-3----------0-|-3--------|-----0--3-----|

Impersonations

|------------|--------------|----------|-----------------|
|------------|--------------|----------|-----5---5-------|
|------------|--------------|----------|-5-7---7---7-5---|
|-/5-------0-|-5---5--x-x-x-|-5--------|---------------7-|

|-----------|--------------|----------|--------------|
|-----------|--------2-----|----------|--------------|
|-----------|-----2----5---|----------|-2--------/2--|
|-3-------2-|-3----------x-|-3--------|----0--3------|

|-----------|-----------|-----------|------------|
|-----------|-----------|-----------|----2-------|
|-----------|--------2--|-----------|-5-----5----|
|-5------5--|-5---------|-5------5--|------------|

|-----------|-------------|-----------|--------------|
|-----------|----2--------|-----------|--------------|
|-----------|-2-----5-----|-----------|-2--------/2--|
|-3------3--|-----------0-|-3------3--|----0--3------|

|-----------|-----------|-----------|----------------|
|-----------|-----------|-----------|-----5---/9-----|
|-----------|-----------|-----------|-5-7---7--------|
|-5------5--|-5------5--|-5------5--|-------------0--|

|---7-----------|----------------|----------------|--------------|
|-5---5---------|--5-----------5-|-/9--5----------|--------------|
|-------------5-|--------5-5-7---|--------7-5---5-|-/7-----------|
|-------7--8----|----7-8---------|------------8---|-----0--2--3--|

|----/17----------|--------------|----------|-----------------|
|---------17\-----|--------------|----------|-----5---5-------|
|-----------------|--------------|----------|-5-7---x---7-5---|
|-5-------------0-|-5---5--3-0-3-|-5--------|---------------7-|

|-----------|--------------|----------|-----------------|
|-----------|--------x-----|----------|-----------------|
|-----------|-----2----5---|----------|-3-3-------------|
|-3-------0-|-3----------0-|-3--------|-----0-0-2-2-3-3-|

|-----------|--------------|--------------|----------------|
|-----------|--------------|--------7-----|-----5---/9-----|
|-----------|--------------|------7---7---|-5-7---7-----7--|
|-5-------3-|-5---5--3-0-3-|-5----------5-|----------------|

|------------|-----------------|---------------|---------------|
|--------5-3-|-----3-5-/9------|----5----------|-5-------------|
|------------|-5-5---------5-3-|-2-------5-----|---------------|
|-3----------|-----------------|-------3---3-0-|---3-3-0-3--4--|

|--------------|-----------------|---------------|----------------|
|--------------|-----------------|---------7-----|-----5---/9-----|
|--------------|-----------------|-------7---7---|-5-7---7--------|
|-5--5---5-3-0-|-5-3-0-5-3-0-7-7-|-5--5--------5-|-------------0--|

|-----------------|--------------9-10-11-|-12-9-10-11-12-----|---------------|
|---------9-9--10-|--10-11h12-12---------|-------------------|---------------|
|-10--10----------|----------------------|-------------------|-3-------------|
|-----------------|----------------------|----------------3--|---0-0-0-3--4--|

|----------------|--------------|-----------|---------------|
|----/17---------|--------------|-----------|-----5---9--5--|
|---------17\----|--------------|-----------|-5-7---7-------|
|-5--------------|-5---5--3-0-3-|-/5--------|---------------|

|------------|-----6-5-3------|---------------|---------------|
|--------5-3-|----------------|----5----------|---------------|
|------------|-5-5--------5-3-|-2-------5-----|-3-------------|
|-3----------|----------------|-------3---3-0-|---0-3-0-3--4--|

|-----------|--------------|----------|----------------|
|-----------|--------------|----------|-----5---/9--5--|
|-----------|--------------|----------|-5-7---7--------|
|-5-------0-|-5---5--3-0-3-|-5--------|----------------|

|------------|-----------------|------------|-------------|
|--------5-3-|-----3-5-/9------|----5-------|-------------|
|------------|-5-5---------5-3-|-2----------|-3-----------|
|-3----------|-----------------|-------3----|----0--3--4--|

|----------|---------|---------|---------| (bass sounds very muted here)
|----------|---------|---------|---------|
|----------|---------|---------|---------|
|-5--------|---------|---------|---------|

||----------|---------|---------|----------||
||o---------|---------|---------|---------o||
||o---------|---------|---------|---------o||
||----------|---------|---------|----------||

|----------|-------------|---------------|--------------|
|----------|-------------|---------5-----|--------------|
|----------|----2----x---|-------5---5---|-/3-----------|
|-3--------|-3---------0-|-3--3--------3-|-----0--3--4--|

|---------------|-----------------|---------------|----------------|
|---------------|-----------------|---------7-----|-----5---/9-----|
|---------------|-----------------|-------7---7---|-5-7---7--------|
|-5--5--x-5-3-0-|-5-3-0-5-3-0-/7--|-5--5--------5-|-------------0--|

|-----/17---------|-----------------|---------------|----------------|
|----------17\----|-----3---/9------|----5----------|------5---------|
|-10--------------|-5-5---5-----5-3-|-2-------5-----|-/3-------------|
|-----------------|-----------------|-------3---3-0-|----0---0-3--4--|

|-----------|---------------|--------------|----------------|
|-----------|---------------|--------7-----|-----5---/7-----|
|-----------|---------------|------7---7---|-5-7---7--------|
|-5-------0-|-5-3--5--3-0-3-|-5----------5-|-------------0--|

|------------|---------4------|---------------|----------------|
|-5------5-3-|-----3-5--------|----5----------|----------------|
|------------|-5-5--------5-3-|-2-------5-----|-/3-------------|
|------------|----------------|-------3---3-0-|----0-3-0-3--4--|

|------------|-------------|-----------|----------------|
|------------|-------------|-----------|-----5---/7-----|
|------------|-------------|-----------|-5-7---7--------|
|-5----5-5---|-----5-5-3-0-|-5----5----|-------------0--|

|---------------|---------------|----------------|---------------|
|-5-5--5-3-3--3-|-2-2--2--------|-----5-3----5---|---------------|
|---------------|--------5-5----|-2-5------5---5-|-2s7-----------|
|---------------|-------------5-|----------------|-----0--2-2-3--|

Ending

|------------|-------------|-------------|--------------|
|------------|-------------|------7------|----------5---|
|------------|-------2-----|--------7----|-5----5-7---7-|
|-5----5---0-|-5--5-----5--|---5------5--|--------------|

|------------|-------------|-------------|--------------|
|-5--5-------|-5--5--------|-------------|--------------|
|----------5-|-------5-----|-------------|-2------------|
|------------|-----------0-|-3--3----3-0-|---3-0--2--3--|

|------------|--------------|-----------------|----------|
|------------|----/7--------|-----------------|----------|
|------------|--------7-----|-----------------|----------|
|-5----5---0-|-5---------5--|-5555555555555555|-------4--|

|-----------------|----------|-----------------|-----------------*|
|-----------------|----------|-----------------|-----------------*|
|-----------------|----------|-----------------|-----------------*|
|-4444444444444444|-------3--|-3333333333333333|-3333333333333333*|


-------------------------------
Could It Be I'm Falling in Love
-------------------------------

128BPM, 4/4

Intro

|---------|---------|---------|---------|
|---------|---------|---------|---------|
|---------|---------|---------|---------|
|---------|---------|---------|---------|

|---------|--------7-|----------------|----------------| *dotted eighth
|---------|---------7|----------------|----------------|
|---------|----------|-5--5*-x5-5-5-3-|--3-3*-x3-3-3-2-|
|---------|----------|----------------|----------------|

|---------------|-----------------|
|---------------|--------0h1313---|
|--2-2*-x2-2--3-|--1------------1-|
|---------------|----3-1----------|

Verse

|----------------|-------0--------|----------------|--------------|
|------------0-1-|--1-1*--3-------|------------0-1-|--1-1--1-1----|
|--1-1*-11-3-----|--------------1-|--1-1*-x1-3-----|--------------|
|----------------|----------3-1---|----------------|------------5-|

|------------------|----------------|---------------|---------------|
|----779-10109-7-7-|----------------|---------------|---------------|
|--7---------------|----/9--7-5-7---|---------------|-----------2-3-|
|------------------|-0------------7-|--7-7*-x7-7--7-|-5--5--5-3-----|

|-----------------|
|--------0h1313---|
|---------------1-|
|--0-3-1----------|

|----------------|----------------|----------------|---------------|
|------------0-1-|--1-1-543-------|------------0-1-|--1-1*-x0-1----|
|--1-1*-x1-3-----|--------------1-|--1-1*-x1-3-----|---------------|
|----------------|----------321---|----------------|-------------5-|

|-----------------|----------------|---------------|--------------|
|----79-10-77-7---|----------------|---------------|--------------|
|--7-----------7--|----7/9-7-5-7---|---------------|---------2--3-|
|---------------5-|-0------------7-|--7-7*-x7-7--7-|-5--5--5------|

|----------|
|----------|
|----3-----|
|----------|

Chorus

|----------------|--------------|----------------|--------------|
|---------2------|--------------|--------2-------|--------------|
|-3-3-3-2----2---|---------2--2-|-3--3-2-----2---|---------2--2-|
|--------------5-|--5-5--5------|--------------5-|--5-5--5------|

|---------------|----------7-|----------------|------5---------|
|--------2------|-----------7|----------------|-------5--------|
|-3--3-2----2---|----5-------|-5--5*-x5-5-5-3-|--3-3---3-3-3-2-|
|-------------5-|--5---------|----------------|----------------|

|---------------|-----------------|
|---------------|--------0h1313---|
|--2-2*-x2-2--3-|--1------------1-|
|---------------|----3-1----------|

Verse

|----------------|-------0--------|----------------|---------------|
|------------0-1-|--1-1*--3-------|------------0-1-|--1-1*-x1-1----|
|--1-1*-x1-3-----|----------3---1-|--1-1*-11-3-----|---------------|
|----------------|------------1---|----------------|-------------5-|

|------------------|----------------|---------------|---------------|
|----779-10109-7-7-|----------------|---------------|---------------|
|--7---------------|----/9--7-5-7---|---------------|-----------2-3-|
|------------------|-0------------7-|--7-7*-x7-7--7-|-5--5--5-3-----|

|-----------------|
|--------0h1313---|
|---------------1-|
|--0-3-1----------|

|----------------|----------------|----------------|---------------|
|------------0-1-|--1-1-543-------|------------0-1-|--1-1*-11-1----|
|--1-1*-x1-3-----|--------------1-|--1-1*-11-3-----|---------------|
|----------------|----------321---|----------------|-------------5-|

|-----------------|----------------|---------------|--------------|
|----79-10-77-x---|----------------|---------------|--------------|
|--7-----------7--|----7/9-7-5-7---|---------------|---------2--3-|
|---------------5-|-0------------7-|--7-7*-x7-7--7-|-5--5--5------|

|----------|
|----------|
|----3-----|
|----------|

Chorus

|----------------|--------------|----------------|---------------|
|---------2------|--------------|---------2------|---------------|
|-3-3-3-2----2---|---------2--2-|-3-3-3-2----2---|----------2--2-|
|--------------5-|--5-5--5------|--------------5-|--5-5*-x5------|

|----------------|----------7-|----------------|----------------|
|---------2------|-----------7|----------------|----------------|
|-3-3-3-2----2---|----5-------|-5--5*-x5-5-5-3-|--3-3*-x3-3-3-2-|
|--------------5-|--5---------|----------------|----------------|

|---------------|-----------------|
|---------------|--------0h1313---|
|--2-2*-x2-2--3-|--1------------1-|
|---------------|----3-1----------|

Instrumental

|----------------|----------------|----------------|---------------|
|------------0-1-|--1-1-543-------|------------0-1-|--1-1*-x1-1----|
|--1-1*-x1-3-----|--------------1-|--1-1*-x1-3-----|---------------|
|----------------|----------321---|----------------|-------------5-|

|-----------------|----/11--9-------|--------------|---------------|
|----779-10109-7--|-----------9-----|--------------|---------------|
|--7--------------|-------------7---|--------------|-----------2-3-|
|-----------------|-0-------------7-|--7-7--7-7--7-|-5--5--5-3-----|

|----------------|
|--------0h131/5-|
|----------------|
|--0-3-1---------|

|-----------------|----------------|----------------|---------------|
|-------------0-1-|--1-1-543-------|------------0-1-|--1-1*-x1-1----|
|-1-1-1*-11-3-----|--------------1-|--1-1*-x1-3-----|---------------|
|-----------------|----------321---|----------------|-------------5-|

|-----------------|----/11--9-------|---------------|--------------|
|----79-10-77-7---|-----------9-----|---------------|--------------|
|--7-----------7--|-------------7---|---------------|---------2--3-|
|---------------5-|-0-------------7-|--7-7*-x7-7--7-|-5--5--5------|

|----------|
|----------|
|----3-----|
|----------|

Chorus

|----------------|--------------|--------------|--------------|
|---------2------|--------------|-------2------|--------------|
|-3-3-3-2----2---|---------2--2-|-3---2----2---|---------2--2-|
|--------------5-|--5-5--5------|------------5-|--5-5--5------|

|---------------|----------7-|
|--------2------|-----------7|
|-3--3-2----2---|----5-------|
|-------------5-|--5---------|

|---------------|----------------|---------------|----5---------|
|---------------|----------------|---------------|--5-----5-----|
|-5--5--5-5-5-3-|--3-3*-x3-3-3-2-|--2-2*-x2-2--3-|--------------|
|---------------|----------------|---------------|----------8-7-|

Philippe's Rap

|---17-------------|--------------|---17--------------|----------------|
|------17\---------|--------------|------17\----------|----------------|
|-----------7------|--------------|-----------7-5-----|----------------|
|-8------------7-5-|--5-5--5-7--7-|-8-------------7-5-|--5-5--5-7-h7-7-|

|---17-------------|--------------|---17--------------|----------------|
|------17\---------|--------------|------17\----------|----------------|
|-----------7------|--------------|-----------7-5-----|----------------|
|-8------------7-5-|--5-5--5-7--7-|-8-------------7-5-|--5-5--5-7-h7-7-|

|---17--------------|--------------|---17--------------|--------------|
|------17\----------|--------------|------17\----------|--------------|
|-----------7-5-----|--------------|-----------7-5-----|--------------|
|-8-------------7-5-|--5-5--5-7--7-|-8-------------7-5-|--5-5--5-7--7-|

|---17--------------|--------------|---17--------------|--------------|
|------17\----------|--------------|------17\----------|--------------|
|-----------7-5-----|--------------|-----------7-5-----|--------------|
|-8-------------7-5-|--5-5--5-7--7-|-8-------------7-5-|--5-5--5-7--7-|

|---17--------------|--------------|---17--------------|--------------|
|------17\----------|--------------|------17\----------|--------------|
|-----------7-5-----|--------------|-----------7-5-----|--------------|
|-8-------------7-5-|--5-5--5-7--7-|-8-------------7-5-|--5-5--5-7--7-|

|---17--------------|--------------|---17--------------|--------------|
|------17\----------|--------------|------17\----------|--------------|
|-----------7-5-----|--------------|-----------7-5-----|--------------|
|-8-------------7-5-|--5-5--5-7--7-|-8-------------7-5-|--5-5--5-5--5-|

Ending

|---------7-|---------7-|---------7-|---------7-|
|-----------|-----------|-----------|-----------|
|-5---------|-5---------|-5---------|-5---------|
|-----------|-----------|-----------|-----------|

|---------|----------|-----------|-----------------*|
|---------|----------|-----------|-----------------*|
|-5-------|-6--5-----|-----------|-----------------*|
|---------|----------|----3--3-3-|-3-3-3-3-3-3-3-3-*|


----------------
Superstar Medley
----------------

[Long spoken intro]

It's Not Unusual

212BPM, 4/4

||-------------|------------|------------|-----------------||
||o------------|------------|------------|-------1-3------o||
||o-1---1-1----|-1---1-1----|-3---3-3----|-3-1-3-----3----o||
||-------------|------------|------------|-------------1---||

|------------|------------|------------|----------------|
|------------|------------|------------|-------1-3------|
|-1---1-1----|-1---1-1----|-3---3-3----|-3-1-3-----3----|
|------------|------------|------------|-------------1--|

|------------|------------|------------|--------------|
|------------|------------|------------|--------------|
|-1---1-1----|-1---1-1----|-3---3-3----|-3-x-1--3--4--|
|------------|------------|------------|--------------|

|------------|--------------|------------|-------------|
|------------|--------------|------------|-------------|
|-5---5-5----|-5-----5---4--|-3---3-3----|-3---3-------|
|------------|-----5---5----|------------|-------3--2--|

|------------|---------------|------------|-------------|
|------------|---------------|------------|-------------|
|------------|-----------1---|-1---1-1----|----------1--|
|-1---1-1----|-1---x-1-3---3-|------------|-3---3-3-----|

|--------------|----------------|
|----------5-4-|-3--------------|
|-3---3-3------|------------1---|
|--------------|----3-2-1-3---3-|

|------------|------------|------------|----------------|
|------------|------------|------------|-------1-3------|
|-1---1-1----|-1---1-1----|-3---3-3----|-3-1-3-----3----|
|------------|------------|------------|-------------1--|

|------------|------------|------------|--------------|
|------------|------------|------------|--------------|
|-1---1-1----|-1---1-1----|-3---3-3----|-3-x-1--3--4--|
|------------|------------|------------|--------------|

|------------|--------------|------------|-------------|
|------------|--------------|------------|-------------|
|-5---5-5----|-5-----5---4--|-3---3-3----|-3---3-------|
|------------|-----5---5----|------------|-------3--2--|

|------------|--------------|------------|------------|
|------------|--------------|------------|------------|
|------------|----------1---|-1---1-1----|-3---3-3----|
|-1---1-1----|-1----1-3---3-|------------|------------|

||-------------|------------|------------|-------------||
||o------------|------------|------------|------------o||
||o-5---5-5----|-3---3-3----|-5---5-5----|-3---3-3----o||
||-------------|------------|------------|-------------||

|---------------|----------------|--------|
|-8-p6----------|----------------|--------|
|------8-7---6--|--66666666666666|-66666--|
|---------------|----------------|--------|

Don't Mess With Bill

120BPM, all triplet feel

|-----------|
|-----------|
|------6----|
|-6--8----8-|

|-------------------|-------------------|-------------------|-------------------|
|-------------------|-------------------|-------------------|-------------------|
|-6---6--------6----|--------------6----|-6---6--------6----|--------------6----|
|--------4-6------6-|-4-----x-6--8----8-|--------4-6------6-|-4-----4-6--8----8-|

|-------------------|-------------------|-------------------|-------------------|
|-------------------|-------------------|-------------------|-------------------|
|-6---6--------6----|--------------6----|-6---6--------6----|--------------6----|
|--------4-6------6-|-4-----x-6--8----8-|--------4-6------6-|-4-----4-6--8----8-|

|-------------------|-------------------|-------------------|-------------------------|
|-------------------|-------------------|-------------------|---6---6---6-------------|
|-6---6--------6----|--------------6----|-6---6--------6----|-------------------------|
|--------4-6------6-|-4-----x-6--8----8-|--------4-6------6-|-4---4---4---4-4-4-4-4-4-|

|-------------------|-------------------|-------------------|---------------------|
|-----------5---4---|-3--------3--------|-----------5---4---|-3--3------3--3------|
|-------3-5---------|--------3----3-----|-------3-5---------|---------3-----------|
|-3---3-------------|-----1---------1---|-3---3-------------|------1---------1--4-|

|-------------------|-------------------|-------------------|---------------------|
|-----------5---4---|-3--------3--------|-----------5---4---|-3-------------------|
|-------3-5---------|--------3----3-----|-------3-5---------|----3-----------3--2-|
|-3---3-------------|-----1---------1---|-3---3-------------|------1--x-1--1------|

|--------------------|-------------------|
|--------------------|----1----------1---|
|-1----1----1----1---|----------1--3-----|
|----1----1----1-----|-4----4------------|

|-------------------|-------------------|---------------------|-------------------|
|-1---1-------------|--------------1----|-1----1--------------|--------------1----|
|--------1----1-----|---------1--3----3-|----x----1----1------|---------1--3----3-|
|----------2----2---|-4-----4-----------|-----------2----2--2-|-4-----4-----------|

||---------------------|-------------------|---------------------|--------------------||
||o-1---1--------------|--------------1----|-1---1---------------|--------------1----o||
||o--------1----1------|---------1--3----3-|-------4-1----1------|---------1--3----3-o||
||-----------2----2--2-|-4-----4-----------|-----------2----2--2-|-4-----4------------||

|----------|----|
|-1--------|-1--|
|----------|----|
|----------|----|

Paper Doll

172BPM

|-------------|-------------|--------------|----------|
|----2--3--4--|-5-----------|--------------|----------|
|-5-----------|----0--1--2--|-3--1--1--2-3-|----------|
|-------------|-------------|--------------|--------x-|

|------------|------------|-----------|-------------|
|------------|------------|-----------|-5--3--------|
|------3--4--|-5----------|------5----|-------5-----|
|-1----------|------5--4--|-3---------|----------3--|

|-----------|-5--3--------|-------------|----------|
|------5----|-------5-----|-3--0--1--2--|-3--------|
|-3---------|----------3--|-------------|----------|
|-----------|-------------|-------------|----------|

|-----------|-----------|-----------|------------|
|-----------|-----------|-----------|------------|
|-----------|-----------|-----------|------3--4--|
|-5----5----|-4----4----|-3----3----|-5----------|

|------------|-------------|----------4-5-|---------|
|------------|-------5-----|-------5------|---------|
|-5----------|----5--------|-3--3---------|---------|
|------5--4--|-3--------3--|--------------|---------|

|----------4--|-5--3--------|-------------|-------------|
|-------5-----|-------5-----|-3-----------|-------7--6--|
|-3--3--------|----------3--|-------3--1--|-------------|
|-------------|-------------|----1--------|-5--5--------|

|-------------|------------|-------------|-------------|
|-5-----------|------------|----------5--|-7---x-------|
|-------5--4--|-3----------|----4--7-----|-------7-----|
|----3--------|------7--6--|-5-----------|----------5--|

|-------------|-------------|-------------|-------------|
|-------3-----|-------3-----|-------------|-------------|
|-1--1-----1--|-2--2-----2--|-3--2--3--4--|-5-----5--4--|
|-------------|-------------|-------------|----5--------|

|----5-----5--|----5-----5--|--------------|-------------| *dotted eighth
|-------------|-------------|--------------|-3-----------|
|-3-----3-----|-3-----3-----|--------3--5--|----5--3-----|
|-------------|-------------|-1--5*-5------|----------5--|
                                           3/4        1/4  4/4
|-------------|-------------|-------------|----------|----|----------|
|-------------|-3--2-3----2-|-3-----------|-1--------|----|----------|
|-------3--5--|-------------|----3--------|----1-----|-4--|-------5--|
|-1--5--------|-------------|-------5--1--|-------3--|----|----------|

||-----------|---------|----------|----------||
||o----------|---------|----------|---------o||
||o-6--------|---------|-6--------|---------o||
||-----------|---------|----------|----------||

Stop! In the Name of Love

124BPM

|----------|
|----------|
|-3--------|
|----------|

|-----------------|-----------------|-----------------|-------------------|
|-----------------|-----------------|-----------456---|-88--8-10-8--------|
|-3-3-3-3-3-3-3-34|-5-5-5-5-5-5-64--|---------------6-|---8--------8------|
|-----------------|---------------6-|-4-4-4-4-4-------|--------------6-h6-|

|----8---------|----------------|----8----------|----------------|
|--------------|--------5-5-6-8-|-----8---------|----------------|
|-6-----6-6--6-|-6--6-6---------|-6----6-6-6--6-|-6--6-6---------|
|--------------|----------------|---------------|--------8-8-6-6-|

|------678-x------|------567-7-----|------456-6-----|-----------------|
|------------8----|-----------7----|-----------6----|-----------------|
|-6-6---------6---|-5-5--------5---|-4-4--------4---|-3-3-------------|
|---------------6-|--------------6-|--------------4-|-----6-6-4-4-3-0-|

|----------------|----------------|----------------|----------------|
|----------------|----------------|----------------|----------------|
|----------------|-1--1*-x--1-----|----------------|-1--1*--1-1-3-5-|
|-1--1*-x1-1-3-4-|--------1---4-3-|-1--1*-x1-1-3-4-|-------1--------|

|------8--------|--------------|--------------------|-----------------|
|---------------|--------------|---10-8------/8-6---|-----------------|
|-6-6----6-6--6-|-6---6-6-6----|--------10--------6-|-----3-3-4-4-5---|
|---------------|------------6-|-4---------4--------|-4-4-----------6-|

|----8---------|----------------|----8----------|----------------|
|--------------|--------5-5-6-8-|---------------|----------------|
|-6-----6-6--6-|-6--6-6---------|-6---6*-6-6--6-|-6--6-6---------|
|--------------|----------------|---------------|--------8-8-6-6-|

||------------------|-----------------|-----------------|--------------------||
||o-----------------|-----------------|-----------456---|-88--8-/10-8-------o||
||o-3-3-3-3-3-3-3-34|-5-5-5-5-5-5-64--|---------------6-|---8---------8-----o||
||------------------|---------------6-|-4-4-4-4-4-------|---------------6-3--||

|----5------|
|-----------|
|-3---------|
|-----------|
       
If I Didn't Care

72BPM, 2/4, triplet feel
                                                      4x
||-------------|------------|------------|------------||
||o----8-10--8-|----8-10--8-|----8-10--8-|-----------o||
||o-6----------|-7----------|-8----------|---------5-o||
||-------------|------------|------------|-6---6-8----||

|------------|------------|------------|-----------|------------|------------|--------|-------|
|----8-10--8-|----8-10--8-|----8-10--8-|-----------|----8-10--8-|----8-10--8-|--------|-------|
|-6----------|-7----------|-8----------|---------5-|-6----------|-7----------|-8------|-------|
|------------|------------|------------|-6---6-8---|------------|------------|--------|-------|

|---------|---------|---------|-----------|---------|---------|---------|---------|
|---------|---------|---------|-----------|---------|---------|---------|---------|
|-6-----6-|---------|-6-----6-|-----------|-6-----6-|---------|-6-------|-6---7---|
|---------|-6-----6-|---------|-6--8-6--8-|---------|-6-----6-|-------6-|---------|

|----------|---------|---------|---------|----------|----------|--------|---------|
|----------|-5-----5-|-6-----6-|-7-----7-|-6--------|----------|--------|---------|
|-8------8-|---------|---------|---------|------8-7-|-6--------|--------|---------|
|------8---|---------|---------|---------|----------|------8-7-|-6------|-6---4---|

|---------|---------|---------|-----------|----------|-5-------|-5-------|-------------|
|---------|-------4-|-5-------|-----------|------5-5-|-------5-|-------4-|-5-------5-4-|
|-------4-|-5-------|-------4-|-5-------2-|-3--------|---------|---------|---5-4-3-----|
|-3-------|---------|---------|----4-3----|----------|---------|---------|-------------|

|---------|---------|---------|---------|---------|---------|--------|----3-----|
|-3-----3-|---------|---------|---------|---------|---------|--------|----------|
|---------|-3-----3-|---------|-3-----3-|---------|---------|-1------|-1--------|
|---------|---------|-1-----1-|---------|-1-----1-|-4-----4-|--------|-------4--|

|---------|---------|---------|---------|--------|-------|-------|-------|-------|-------|
|---------|---------|-5-----5-|---------|--------|-------|-------|-------|-------|-------|
|---------|-5-----5-|---------|-5-------|-3------|-------|-------|-------|-------|-------|
|-3-----3-|---------|---------|-----3---|--------|-------|-------|-------|-------|-------|

|---------|---------|---------|---------|---------|----3-----|--------|-----------|
|-3-----3-|---------|---------|---------|-3---3---|----------|---1----|------1--6-|
|---------|-3-----3-|---------|-3-----3-|---------|-1----1---|--------|-3--3------|
|---------|---------|-1-----1-|---------|---------|----------|--------|-----------|

|--------|---------|
|-5------|---------|
|----6666|-66666666|
|--------|---------|

Hound Dog

204BPM, 4/4

|------------|------------|
|------------|------------|
|-6---4---3--|------------|
|------------|---7--6--5--|

|-------------|-------------|-------------|----------|
|----------3--|-6--3--------|-------------|----------|
|----3--6-----|-------6--3--|----3--4--5--|-6--------|
|-4-----------|-------------|-4-----------|----------|

||----------------|---------------|---------------|----------------|
||o-----------3-3-|-4--3-3--------|-----------3-3-|-4--3-3---------|
||o----3-3-6------|--------6--3-3-|----3-3-6------|--------6--3-3--|
||--4-------------|---------------|-4-------------|----------------|

|----------3--|-4--3--------|-------------|--------------|
|----3--6-----|-------6--3--|----------3--|-4--3---------|
|-4-----------|-------------|----3--6-----|-------6--3-3-|
|-------------|-------------|-4-----------|--------------|

|----------5---|----------3---|-------------|-----------||
|----5--8----8-|----3--6----6-|-------------|----------o||
|-6------------|-4------------|----3--4--5--|-6--------o||
|--------------|--------------|-4-----------|-----------||

||---------------|---------------|--------------|-------------||
||o----------1---|---------3-1---|----------1---|-------0-1--o||
||o-----1-3------|--1-2-3------3-|-----1-3------|----4-------o||
||--4----------2-|---------------|-4----------2-|-------------||

|---------|---------------|-----------------|--------------|
|---------|---------------|-----------------|--------------|
|---------|---------------|-----------------|--------------|
|---------|---4-4-4-4-4-4-|-4-4-4-4-4-4-4-4-|-4-4-4-4-4----|

Pops Tribute

68BPM, 2/4, all triplets

|---------|---------|----------|-----------|---------|---------|-----5-----|----------|
|-6---5---|---------|-6----6-7-|-8---8-----|---------|---------|-------5---|-3----5-3-|
|---------|-8---6---|----------|-------8---|-6-----6-|-4-----4-|-3-------3-|----------|
|---------|---------|----------|---------6-|---------|---------|-----------|----------|

|----------|---------|-----------|----------|---------|----------|-------------|-------------|
|----------|---------|-----------|----------|-6---5---|-----/8---|-------------|-------------|
|------3---|---------|-----------|----------|---------|-8--------|-666666666666|-666666666666|
|-6------6-|-0-----0-|-1--4-5--6-|-h6---6---|---------|----------|-------------|-------------|

|-----|
|-----|
|-----|
|-----|

Hello Dolly

168BPM, 4/4

|--------------|-----------|
|--------3--4--|-5---------|
|-6-6--6-------|------6----|
|--------------|-----------|

|-----------|------------|-----------|------------|
|-6---------|------1--2--|-3---------|-3----------|
|------6----|------------|------3----|------1--2--|
|-----------|-4----------|-----------|------------|

|-----------|-----------|-----------|------------|
|-----------|-----------|------3----|-1----2--3--|
|-3----3----|-2----2----|-1---------|------------|
|-----------|-----------|-----------|------------|

|-----------|-3---------|-----------|------------|
|------3----|------3----|-4---------|-1----2--3--|
|-1---------|-----------|------4----|------------|
|-----------|-----------|-----------|------------|

|------------|------------|-------------|-------------|
|------3--2--|-1----------|-------------|-------------|
|-1----------|------------|-------------|----5--6-----|
|------------|------6--5--|-4--4--7--7--|-6--------3--|

|-----------|------------|------------|-------------|
|-----------|-6----1--2--|-3-------2--|-3--1--------|
|------6---6|------------|------3-----|-------3--1--|
|-4---x-----|------------|------------|-------------|

|------------|-------------|-----------|-------------|
|------4--5--|-6--4--------|-----------|---------x2--|
|------------|-------6--3--|-4---------|-3----3*-----|
|-4----------|-------------|------4----|-------------|

|-------------|-------------|-------------|------------|
|-3---x---3---|------5*--4--|-3---x---3---|------------|
|------1*--1--|-3---x---2---|------1*--1--|-3---x3--2--|
|-------------|-------------|-------------|------------|

|------------|------------|-------------|--------------|
|------3--2--|-1----------|-------------|--------------|
|-1----------|------------|----3--4--5--|-6------------|
|------------|------6--5--|-4-----------|-----4--444444|

|-----------------|----------|---------|------------|
|-----------------|----------|---------|------------|
|-----------------|----------|---------|------------|
|-4444444444444444|-4--------|---------|------3-4-5-|

92BPM, all triplets

|-----------------------|--------6-7-8-6---------|
|--------6-7-8-6--------|------8---------8-------|
|------8---------8----8-|-6--6-------------6-----|
|-6--6-------------6----|--------------------8-7-|

|-----------------------|------10---10-8------------|
|--------6-7-8-6--------|----8----8------10-8-------|
|------8---------8----8-|-6-------------------6-----|
|-6--6-------------6----|-----------------------8-7-|

|-----------------------|-----------------------|---------------------|-----------------2-|
|--------6-7-8-6--------|------5--5-8---8-7---7-|-6-------6-4-------3-|----------3--------|
|------8---------8----8-|-6--6--------8-----7---|----6---------4------|---3----3----3-----|
|-6--6-------------6----|-----------------------|------4---------2----|-----1---------1---|

|-3-----------------|-----------------|-----------|---------|
|----6-3------------|-----------------|-----------|---------|
|----------6--------|-----------------|-----------|---------|
|--------------4--44|-4444444444444444|-4----4----|---------|

Ending

|-------------|-------------|---------|----------|
|-------------|-------------|---------|----------|
|-------------|-------------|--------x|-6--------|
|-4--4--2--2--|-1--1--1--0--|---------|----------|

|-----------|-------------|-----------------*|
|-----------|-------------|-----------------*|
|---6-------|-------------|-----------------*|
|------4----|-4----4--4444|-4444444444444444*|


----------------------
Love Don't Love Nobody
----------------------

132BPM, 3/4

Intro

|------|------|------|------|
|------|------|------|------|
|------|------|------|------|
|------|------|------|------|

|--------|-------|--------|--------|--------|-------|--------|--------|
|--------|-------|--------|--------|--------|-------|--------|--------|
|-6------|-------|-6------|-6------|-3------|-------|-3------|--------|
|--------|-------|--------|--------|--------|-------|--------|-6------|

|--------|--------|--------|---------|--------|---------|--------|---------|
|--------|--------|--------|---------|--------|---------|--------|---------|
|--------|--------|--------|---------|--------|---------|--------|---------|
|-4------|-----4--|-3------|-4----5--|-6------|---6--6--|-4------|---4--4--|

|--------|--------|--------|----------|--------|--------|--------|--------|
|--------|--------|--------|----------|--------|--------|--------|--------|
|--------|--------|--------|-------2--|-3------|--------|--------|--------|
|-3------|-----3--|-3------|-3--5-----|--------|-6------|-4------|-5------|

|--------|--------|--------|--------|--------|--------|--------|--------|
|--------|--------|--------|--------|--------|--------|--------|--------|
|--------|-2------|-3------|--------|-4------|-3------|--------|--------|
|-6------|--------|--------|-6------|--------|--------|-6------|-4------|

|----------|----------|----------|--------|
|----5-----|-5-----5--|----5-----|-5------|
|----------|----------|----------|--------|
|-3-----3--|----3-----|-3-----3--|--------|

Verse

|--------|-------|-------|--------|--------|-------|-------|----------|
|--------|-------|-------|--------|--------|-------|-------|----------|
|-3------|-------|-------|-----3--|--------|-------|-------|----------|
|--------|-------|-------|--------|-0------|-------|-------|-0--1--3--|

|--------|-------|-------|--------|--------|--------|--------|----------|
|--------|-------|-------|--------|--------|--------|--------|-------2--|
|--------|-------|-------|--------|--------|--------|-3------|-3--5-----|
|-5------|-------|-------|-----5--|-3------|-----3--|--------|----------|

|--------|--------|--------|--------|--------|----------|--------|----------|
|--------|--------|--------|--------|--------|----------|--------|----------|
|--------|--------|--------|--------|--------|----------|--------|----------|
|-1------|-----1--|-1------|-----1--|-0------|-0--1--3--|-5------|-5--7--8--|

|--------|---------|--------|---------|----------|----------|----------|----------|
|--------|---------|--------|---------|----------|----------|----------|----------|
|--------|---------|--------|---------|----------|----------|----------|-------2--|
|-6------|---6--6--|-5------|---5--4--|-3--3--3--|-3--3--3--|-3--3--3--|-3--5-----|

|--------|-------|-------|----------|--------|-------|-------|----------|
|--------|-------|-------|----------|--------|-------|-------|----------|
|-3------|-------|-------|-3--3--3--|--------|-------|-------|----------|
|--------|-------|-------|----------|-0------|-------|-------|-0--1--3--|

|--------|-------|-------|----------|----------|----------|--------|----------|
|--------|-------|-------|----------|-------7--|-5--------|--------|-------2--|
|--------|-------|-------|----------|----5-----|----5-----|-3------|-3--5-----|
|-5------|-------|-------|-5--5--4--|-3--------|-------3--|--------|----------|

|--------|--------|--------|--------|--------|----------|--------|----------|
|--------|--------|--------|--------|--------|----------|--------|----------|
|--------|--------|--------|--------|--------|----------|--------|----------|
|-1------|-----1--|-1------|-----1--|-0------|-0--1--3--|-5------|-5--7--8--|

|--------|---------|--------|---------|----------|----------|----------|----------|
|--------|---------|--------|---------|----------|----------|----------|----------|
|--------|---------|--------|---------|----------|----------|----------|-3--3--3--|
|-6------|---6--6--|-5------|---5--4--|-3--3--3--|-3--3--3--|-3--3--3--|----------|

Chorus

|--------|--------|--------|--------|---------|--------|--------|----------|
|--------|--------|--------|--------|---------|-2------|-5------|----------|
|--------|--------|--------|--------|-5----5--|--------|--------|-3--3--3--|
|-1------|-----1--|-0------|-----5--|---------|--------|--------|----------|

|--------|--------|--------|--------|---------|---------|--------|----------|
|--------|--------|--------|--------|---------|---------|--------|----------|
|--------|--------|--------|--------|-5----5--|---------|--------|-3--3--3--|
|-1------|-----1--|-0------|-----5--|---------|-0----0--|-3------|----------|

|--------|--------|--------|--------|---------|---------|----------|----------|
|--------|--------|--------|--------|---------|---------|----------|----------|
|--------|--------|--------|--------|-5----5--|---------|----------|-3--3--3--|
|-1------|-----1--|-0------|-----5--|---------|-0----0--|-3--3--3--|----------|

|--------|--------|--------|--------|---------|---------|----------|----------|
|--------|--------|--------|--------|---------|------2--|-5--5--5--|-5--5--5--|
|--------|--------|--------|--------|-5----5--|---------|----------|----------|
|-1------|-----1--|-0------|-----5--|---------|-0-------|----------|----------|

|----------|----------|
|-5--5--5--|-5--------|
|----------|-------2--|
|----------|----5-----|

Verse

|--------|-------|-------|----------|--------|-------|-------|----------|
|--------|-------|-------|----------|--------|-------|-------|----------|
|-3------|-------|-------|-3--5--3--|--------|-------|-------|----------|
|--------|-------|-------|----------|-0------|-------|-------|-0--1--3--|

|-------|-------|-------|--------|----------|--------|----------|----------|
|-------|-------|-------|-7------|----------|--------|----------|-------2--|
|-------|-------|-------|--------|----------|--------|-3--1--2--|-3--5-----|
|-------|-------|-------|--------|-3--1--2--|-3------|----------|----------|

|--------|--------|--------|--------|--------|----------|--------|----------|
|--------|--------|--------|--------|--------|----------|--------|----------|
|--------|--------|--------|--------|--------|----------|--------|----------|
|-1------|-----1--|-1------|-----1--|-0------|-0--1--3--|-5------|-5--7--8--|

|--------|---------|--------|---------|----------|----------|----------|----------|
|--------|---------|--------|---------|----------|----------|----------|----------|
|--------|---------|--------|---------|----------|----------|----------|-3--3--3--|
|-6------|---6--6--|-5------|---5--4--|-3--3--3--|-3--3--3--|-3--3--3--|----------|

Chorus

|--------|--------|--------|--------|---------|---------|--------|----------|
|--------|--------|--------|--------|---------|---------|--------|----------|
|--------|--------|--------|--------|-5----5--|---------|--------|-3--3--3--|
|-1------|-----1--|-0------|-----5--|---------|-0----0--|-3------|----------|

||---------|--------|--------|--------|---------|---------|--------|-----------||
||o--------|--------|--------|--------|---------|------2--|--------|----------o||
||o--------|--------|--------|--------|-5----5--|---------|--------|-3--3--3--o||
||--1------|-----1--|-0------|-----5--|---------|-0-------|-3------|-----------||

|--------|--------|--------|--------|---------|---------|
|--------|--------|--------|--------|---------|------2--|
|--------|--------|--------|--------|-5----5--|---------|
|-1------|-----1--|-0------|-----5--|---------|-0-------|

Fade Out

|----------|-----------|----------|-----------|----------|-----------|-------------|------------|
|-5-----5--|----5------|-5-----5--|--5-5---5--|-6-----6--|----6------|-6-4-4-------|------------|
|----------|-----------|----------|-----------|----------|-----------|-------4-4---|-----4------|
|----3-----|-3----/3---|----3-----|-3---3-----|----4-----|-4----/4---|-----------6-|-4-6---6-4--|

|--------| F -------|--------|---------|--------|----------|
|--------| A ----8--|--------|-3----3--|-6------|----------|
|--------| D -------|-6----6-|---------|--------|-4--4--4--|
|-2------| E -6-----|--------|---------|--------|----------|

Chorus

|-----------|----------|-----------|----------|---------|---------|--------|-3--3--3--|
|-4---------|-------4--|-3---------|-------3--|-1----1--|-3----3--|-6------|----------|
|-----4-4-4-|----4-----|-----3-3-3-|----3-----|---------|---------|--------|----------|
|-----------|-2--------|-----------|-1--------|---------|---------|--------|----------|

|-----------|----------|-----------|---------|-------|-------|----------|----------|
|-4---------|-------4--|-3---------|------3--|-------|-------|-6--6--6--|-6--6--6--|
|-----4-4-4-|----4-----|-----3-3-3-|---------|-------|-------|----------|----------|
|-----------|-2--------|-----------|-1-------|-------|-------|----------|----------|

|----------|----------|
|-6--6--6--|-6--6--6--|
|----------|----------|
|----------|----------|

Rap

|--------|-------|-------|---------|--------|-------|--------|--------|
|--------|-------|-------|---------|--------|-------|--------|--------|
|-4------|-------|-------|-4-----4-|--------|-------|--------|--------|
|--------|-------|-------|---------|-6------|-------|-6------|-4------|

|--------|--------|--------|---------|--------|---------|--------|---------|
|--------|--------|--------|---------|--------|---------|--------|---------|
|--------|--------|--------|---------|--------|---------|--------|---------|
|-2------|-----2--|-1------|-2----2--|-4------|---4--4--|-2------|---2--2--|

|--------|--------|--------|----------|--------|--------|--------|--------|
|--------|--------|--------|----------|--------|--------|--------|--------|
|--------|--------|--------|----------|--------|--------|--------|--------|
|-1------|-----1--|-1------|-1--3--5--|-6------|-4------|-2------|-3------|

|--------|--------|--------|--------|----------|----------|----------|-----------|
|--------|--------|--------|--------|----------|----------|----------|-----------|
|--------|--------|--------|--------|-2--2---2-|-1--1---1-|----------|-----------|
|-4------|-5------|-6------|-4------|----------|----------|-4--4---4-|-2--2---2--|

|----------|----------|----------|----------|
|----3-----|-3-----3--|----3-----|----------|
|----------|----------|----------|-1--1--1--|
|-1-----1--|----1-----|-1-----1--|----------|

Chorus
                                                                               x7
||---------|--------|--------|--------|---------|---------|--------|-----------||
||o-1------|--------|--------|--------|---------|---------|--------|----------o||
||o--------|-----6--|-5------|-----5--|-3----3--|-5----5--|--------|-1--1--1--o||
||---------|--------|--------|--------|---------|---------|-1------|-----------||

Breakdown

|-------|-------|-------|-------|--------|--------|--------|----------|
|-------|-------|-------|-------|--------|--------|--------|----------|
|-------|-------|-------|-------|-3------|-5------|--------|-1--1--1--|
|-------|-------|-------|-------|--------|--------|-1------|----------|

||---------|-------|--------|-------|--------|--------|--------|-----------||
||o-1------|-------|--------|-------|--------|--------|--------|----------o||
||o--------|-------|-5------|-------|-3------|-5------|--------|-1--1--1--o||
||---------|-------|--------|-------|--------|--------|-1------|-----------||

||--------|-------|-------|-------|-------|-------|-------|-----------||
||o-------|-------|-------|-------|-------|-------|-------|----------o||
||o-------|-------|-------|-------|-------|-------|-------|-1--1--1--o||
||--------|-------|-------|-------|-------|-------|-------|-----------||

||--------|-------|-------|-------|---------|---------|--------|-----------||
||o-------|-------|-------|-------|---------|---------|--------|----------o||
||o-------|-------|-------|-------|-3----3--|-5----5--|--------|-1--1--1--o||
||--------|-------|-------|-------|---------|---------|-1------|-----------||

||---------|-------|--------|-------|---------|---------|--------|-----------||
||o-1------|-------|--------|-------|---------|---------|--------|----------o||
||o--------|-------|-5------|-------|-3----3--|-5----5--|--------|-1--1--1--o||
||---------|-------|--------|-------|---------|---------|-1------|-----------||

|--------|-------|--------|-------|----------|---------|--------|----------|
|-1------|-------|--------|-------|----------|---------|--------|----------|
|--------|-------|-5------|-------|-3--1--3--|-5----5--|--------|-1--1--1--|
|--------|-------|--------|-------|----------|---------|-1------|----------|

|-------|--------|--------|--------|---------|---------|--------|----------|
|-------|--------|--------|--------|---------|---------|--------|----------|
|-------|-----6--|-5------|-----5--|-3----3--|-5----5--|--------|-1--1--1--|
|-------|--------|--------|--------|---------|---------|-1------|----------|

Ending

|-------|---------|----------|---------|--------|----------|------------|-------------|
|-------|---------|----------|---------|-3------|-3--3--3--|------------|-------------|
|-------|-5-----1-|-3--3---3-|-5--5----|--------|----------|-1--1-1-1-1-|-1-1-1-1-1-1-|
|-------|---------|----------|---------|--------|----------|------------|-------------|

|-------------|-------------|-------------|-------------*|
|-------------|-------------|-------------|-------------*|
|-1-1-1-1-1-1-|-1-1-1-1-1-1-|-1-1-1-1-1-1-|-1-1-1-1-1-1-*|
|-------------|-------------|-------------|-------------*|


-----------
Mighty Love
-----------

124BPM, 4/4

Intro

|---------------|--------------|---------------|
|---------------|--------------|---------------|
|-3--3-3--3-3*-x|-3-2-----5----|------------5--|
|---------------|------5-----2-|-3-5-6-7--7----|

|---------------|--------------|----------------|
|---------------|--------------|----------------|
|-3--3-3--3-3*-x|-3-2-----5----|-----2--------2-|
|---------------|------5-----2-|-3-5---2--3-5---|

|------------|-----5-----------|
|------------|------5----5-5---|
|-3--3-3-----|-3-3---3-57----7-|
|------------|-----------------|

Verse

|--------------|------------|---------------|----------------|
|--------------|------------|---------------|------------2---|
|--------------|----2-5-----|---------------|--------------5-|
|-3--3--3-3--2-|--5---------|-5--5*-x5-5--5-|-0--0*-00-0-----|

|--------------|-------------|---------------|-------------|
|--------------|-------------|---------------|-------------|
|-6--6--6-6--5-|--5--7--7-7--|-------x2-2--3-|--2-----2--0-|
|--------------|-------------|-5--5*---------|-----5-------|

|--------------|----------------|--------------|--9-------------|
|--------------|--------------2-|--------------|----9-----------|
|-3--3-5--5----|----------2-5---|-3--3-5--6--7-|------7---------|
|------------3-|--3-3-333-------|--------------|--------0-0-0-2-|

Pre-Chorus

|----------------|----------------|----------------|----------------|
|--234*----------|---123*---------|------------2---|----------------|
|----------------|----------------|--------------5-|-6--6*-x6-6-6-5-|
|-------x2-3-5-2-|-1------x1-1--1-|-0--0*-00-0-----|----------------|

|-------------|---------------|------------|
|-------------|---------------|------------|
|--5--7--7-7--|--------2-2--3-|--2-----2---|
|-------------|-5--5*-5-------|-----5------|

Chorus

|---------------|--------------|----------------|---------------|
|---------------|--------------|--------------5-|---------------|
|-3--3-3--3-3*-x|-3-2-----5----|----------557---|-3--3-3--3-3*-x|
|---------------|------5-----2-|-3-5-6-7--------|---------------|

|--------------|----------------|--------------|------------|
|--------------|----------------|--------------|------------|
|-3-2-----5----|-----2------0-1-|-2---2----2---|-3--3-3-----|
|------5-----2-|-3-5---2--3-----|--------2---5-|------------|

|-----5-----------|
|------5----5-5---|
|-3-3---3-57----7-|
|-----------------|

Verse

|--------------|------------|----------------|----------------|
|--------------|------------|----------------|------------2---|
|--------------|----2-5-----|----------------|--------------5-|
|-3--3--3-3--2-|--5---------|-5--5*-x5-5-5-5-|-0--0*-00-0-----|

|---------------|-------------|---------------|-------------|
|---------------|-------------|---------------|-------------|
|-6--6--6-6-6-5-|--5--7--7-7--|-------2-2-2-3-|--2-----2--0-|
|---------------|-------------|-5--5----------|-----5-------|

|--------------|----------------|--------------|--/11-9-----------|
|--------------|--------------2-|--------------|--------9---------|
|-3--3-5--5----|----------2-5---|-3--3-5--6--7-|------------------|
|------------3-|--333-333-------|--------------|----------0-0-0-2-|

Pre-Chorus

|----------------|----------------|----------------|----------------|
|--234*----------|---123*---------|------------2---|----------------|
|----------------|----------------|--------------5-|-6--6*-x6-6-6-5-|
|-------x2-3-5-2-|-1------x1-1--1-|-0--0*-00-0-----|----------------|

|--------9-9---|----------------|------------|
|--------------|----------------|------------|
|--5--7------7-|-------x2-2-2-3-|--2-----2---|
|--------------|-5--5*----------|-----5------|

Chorus

|---------------|--------------|----------------|---------------|
|---------------|--------------|--------------5-|---------------|
|-3--3-3--3-3*-x|-3-2-----5----|----------557---|-3--3-3--3-3*-x|
|---------------|------5-----2-|-3-5-6-7--------|---------------|

|--------------|----------------|---------------|------------|
|--------------|----------------|---------------|------------|
|-3-2-----5----|-----2------0-1-|-2--2-2----220-|-3--3-3-----|
|------5-----2-|-3-5---2--3-----|---------2-----|------------|

|-----5-----------|
|------5----5-5---|
|-3-3---3-57----7-|
|-----------------|

|---------------|--------------|----------------|
|---------------|--------------|--------------5-|
|-3--3-3--3-3*-x|-3-2-----5----|----------557---|
|---------------|------5-----2-|-3-5-6-7--------|

|------------------|--------------|----------------|
|------------------|--------------|--------------5-|
|-3--3-3----3------|-3-2-----5----|----------557---|
|--------3h5--5p3*-|------5-----2-|-3-5-6-7--------|
                                                  4x
||---------------|--------------|-----------------||
||o--------------|--------------|--------------5-o||
||o-3--3-3--3-3--|-3-2-----5----|----------557---o||
||---------------|------5-----2-|-3-5-6-7---------||

|--------------|--------------|----------------|
|--------------|--------------|----------------|
|-3--3-3--3-3--|-3-2-----5----|----------5-77--|
|--------------|------5-----2-|-3-5-667------3-|

||-------------------|--------------|-----------------||
||o---10---9---7---5-|--------------|----------------o||
||o------------------|-3-2-----5----|----------5-----o||
||--8----7---5---3---|------5-----2-|-3-5-667----777--||

|------------------|--------------|----------------|
|---10---9---7---5-|--------------|----------------|
|------------------|-3-2-----5----|-----------5----|
|-8----7---5---3---|------5-----2-|-3-5-667-7---7--|

|------------------|--------------|----------------|
|---10---9---7---5-|--------------|----------------|
|------------------|-3-2-----5----|----------5---5-|
|-8----7---5---3---|------5-----2-|-3-5-6-7----7---|

|------------------|--------------|----------------|
|---10---9---7---5-|--------------|----------------|
|------------------|-3-2-----5----|----------5-----|
|-8----7---5---3---|------5-----22|-3-5-6-7----557-|
                                                      4x
||-------------------|--------------|-----------------||
||o---10---9---7---5-|--------------|----------------o||
||o------------------|-3-2-----5----|----------5-----o||
||--8----7---5---3---|------5-----2-|-3-5-6-7----5-7--||

|------------------|--------------|-----------------|
|---10---9---7---5-|--------------|------------5----|
|------------------|-3-2-----5----|----------5--5---|
|-8----7---5---3---|------5-----2-|-3-5-6-7-------3-|

|------------------|--------------|----------------|
|---10---9---7---5-|--------------|----------------|
|------------------|-3-2-----5----|----------5---55|
|-8----7---5---3---|------5-----2-|-3-5-667----7---|

|------------------|--------------|----------------|
|---10---9---7---5-|--------------|----------------|
|------------------|-3-2-----5----|----------5-----|
|-8----7---5---3---|------5-----2-|-3-5-667----557-|

||-------------------|--------------|------------------||
||o---10---9---7---5-|--------------|-----------------o||
||o------------------|-3-2-----5----|-----------5-----o||
||--8----7---5---3---|------5-----2-|-3-4-5-6-7---5577-||
                                                      24x
||-------------------|--------------|------------------||
||o---10---9---7---5-|--------------|-----------------o||
||o------------------|-3-2-----5----|-----------5-----o||
||--8----7---5---3---|------5-----2-|-3-3-556-7---5577-||
                                                      11x
||-------------------|--------------|------------------||
||o---10---9---7---5-|--------------|-----------------o||
||o------------------|-3-2-----5----|-----------5-----o||
||--8----7---5---3---|------5-----2-|-3-3-556-7---5577-||

|------------------|--------------|----------------|
|---10---9---7---5-|--------------|--------------5-|
|------------------|-3-2-----5----|----------557---|
|-8----7---5---3---|------5-----2-|-3-5-6-7--------|

|---------------|--------------|----------------|
|---------------|--------------|--------------5-|
|-3--3-3--3-3-xx|-3-2-----5----|----------5577--|
|---------------|------5-----2-|-3-5-6-7--------|

|---------------|--------------|----------------|
|---------------|--------------|--------------5-|
|-3--3-3--3-3-xx|-3-2-----5----|----------557---|
|---------------|------5-----2-|-3-5-6-7--------|

Ending

|-------------|-----------|-----------------|
|-------------|-----------|-----------------|
|-3--3-3---5--|---5----5--|-5555555555555555|
|-------------|-----------|-----------------|

|-----------|---------|---------*|
|-----------|---------|---------*|
|-5---------|---------|---------*|
|------3----|---------|---------*|

---
tabbed by w.g.wilson
i make no money from this tab.
Добавлено: 07.08.2015
Другие материалы по этой песне:
  • Аккорды и текст

Страница создана 07.08.2015
http://primanota.ru/spinners/spinners-live-album-chords.htm
Привет, Гость.
Предлагаем пройти революционный курс по гитаре.
Подарок от PrimaNota.Ru, забирай!