PrimaNota.ru - самый крупный в мире бесплатный архив песенных текстов, аккордов, табулатур и нот


Spinners - New And Improved (album) - бас-таба, видео

Регистрация Запомнить меня
Войти через:  Facebook Google Twitter Vk Yandex Mail.ru

Spinners - New And Improved (album) - бас-таба, видео

Печатать
Просмотров: 57
----------------
New and Improved
----------------
The Spinners
Bass Tabs
Bass played by Bob Babbitt

Track Listing

1. Sitting on Top of the World
2. Smile, We Have Each Other
3. Then Came You
4. There's No One Like You

5. Living a Little, Laughing a Little
6. Sadie
7. Lazy Susan
8. I've Got to Make It on My Own


---------------------------
Sitting on Top of the World
---------------------------
(Bruce Hawes, Joseph B. Jefferson, Charles Simmons)

104BPM, 4/4

Intro

|-----------|
|-----------|
|-----------|
|-0----3----|

|----------|---------|---------|-----------|
|----------|---------|---------|-----------|
|----------|---------|---------|-----------|
|-5--------|---------|---------|-------0-3-|

|------------|------------|------------|------------|
|------------|------------|------------|------------|
|------------|------------|--5----x--3-|-5----------|
|-5------0-3-|-5------5-5-|--------5---|--------0-3-|

|------------|------------|------------|------------|
|------------|------------|------------|------------|
|------------|------------|--5----x--3-|-5----------|
|-5------0-3-|-5------5-5-|--------5---|--------0-1-|

Verse

|-------------|-------------|-------------|------------|
|-------------|-------------|-------------|--------2-3-|
|-------------|-------------|-5---5-5---5-|-5----------|
|-3---3-3---3-|-3h3--5----5-|-------------|------------|

|--------------|-------------|-------------|------------|
|-5---5-5-5--5-|-5-5---------|-------------|------------|
|--------------|-------------|-5---5-5---5-|-5------5-5-|
|--------------|------5----5-|-------------|------------|

|---------------|------------|-------------|-------------|
|-2h2---2-------|------------|-------------|------2----2-|
|------2--------|------------|-5---5h5---5-|-h5----------|
|--------3-3--0-|----1h1---5-|-------------|-------------|

|--------------|------------|---------------|--------------|
|-2----2-------|------------|---------------|--------------|
|-----2--------|------------|---------------|--------------|
|-------3-3--0-|----1h1---3-|-3-3--3-3h3--3-|-3h3--3-3--3--|

|--------------|-------------|-------------|------------|
|--------------|-------------|-------------|--------2-3-|
|--------------|-------------|-5---5-5---5-|-5----------|
|-3---3-3-3--3-|-3-3--5----5-|-------------|------------|

|--------------|-------------|-------------|------------|
|-5---5-5-5--5-|-5-5---------|-------------|------------|
|--------------|-------------|-5---5h5-----|-5------5-5-|
|--------------|------5----5-|-----------5-|------------|

|---------------|------------|-------------|-------------|
|-2h2---2-------|------------|-------------|------2----2-|
|------2--------|------------|-5---5-5---5-|-h5----------|
|--------3-3--0-|----1h1---5-|-------------|-------------|

|--------------|------------|----------------|---------------|
|-2----2-------|------------|----------------|-------7-7-7-5-|
|-----2--------|------------|----------------|---------------|
|-------3-3--0-|----1h1---3-|-h3h3--3h3h3--3-|-5---5---------|

Chorus

|---------------|-------------|------------|------------|
|-3--2----------|-------------|------------|------------|
|------5--------|-------------|------------|------------|
|--------3--1-0-|----5--5-5-3-|-1---1----0-|--x3-5----3-|

|--------------|-----------|----------|----------| *last two bars 3/4
|--------------|-----------|----------|-2---2--2-|
|--------------|-----------|-5---5--5-|----------|
|-1---1-0--4-5-|------5-5--|----------|----------|

|-----------------|-------------|
|-3-3--3----------|-------------|
|-------3---------|-------------|
|---------1-1-1-1-|-3--3--0---5-|

|------------|------------|------------|------------|
|------------|------------|------------|------------|
|------------|------------|--5-------3-|-5----------|
|-5------0-3-|-5------5-5-|--------5---|--------0-5-|

|------------|------------|------------|------------|
|------------|------------|------------|------------|
|------------|------------|--5-------3-|-5----------|
|-5------0-3-|-5------5-5-|--------5---|--------0-1-|

Verse

|--------------|-------------|--------------|------------|
|--------------|-------------|--------------|--------2-3-|
|--------------|-------------|-5---5-5h5--5-|-5----------|
|-3---3-3h3--3-|-3h3--5----5-|--------------|------------|

|---------------|--------------|-------------|------------|
|-5h5--5-5-5--5-|-5-5----------|-------------|------------|
|---------------|--------------|-5---5-5---5-|-5------5-5-|
|---------------|------5h5---5-|-------------|------------|

|---------------|------------|-------------|--------------|
|-2h2---2-------|------------|-------------|------2h2---2-|
|------2--------|------------|-5---5-5---5-|-h5-----------|
|--------3-3--0-|----1h1---5-|-------------|--------------|

|---------------|------------|---------------|--------------|
|-2h2---2-------|------------|---------------|------7-7-7-5-|
|------2--------|------------|---------------|--------------|
|--------3-3--0-|----1h1---3-|-3h3--3-3h3--3-|-5------------|

Chorus

|---------------|-------------|------------|------------|
|-3--2----------|-------------|------------|------------|
|------5--------|-------------|------------|------------|
|--------3--1-0-|----5--5h5-3-|-1---1----0-|--3--5----3-|

|--------------|-----------|----------|----------| *last two bars 3/4
|--------------|-----------|----------|-2---2--2-|
|--------------|-----------|-5---5--5-|----------|
|-1---1-0--4-5-|------5-5--|----------|----------|

|----------------|------------|
|-3-3--3---------|------------|
|-------3--------|------------|
|--------1-1-1-1-|-3--3-----5-|
                                                       4x
||-------------|------------|------------|-------------||
||o------------|------------|------------|------------o||
||o------------|------------|--5-------3-|-5----------o||
||--5------0-3-|-5------5-5-|--------5---|--------0-5--||
                                                       4x
||--------------|------------|------------|------------|| 
||o-------------|------------|------------|-----------o||
||o-------------|------------|--5-------3-|-5---------o||
||--h5------0-3-|-5------5-5-|--------5---|---------5--||

||-------------|------------|------------|-------------||
||o------------|------------|------------|------------o||
||o------------|------------|--5----x--3-|-5----------o||
||--5------0-3-|-5------5-5-|--------5---|--------0-5--|| til fade


-------------------------
Smile, We Have Each Other
-------------------------
(Hawes, Jefferson, Simmons)

144BPM, 4/4

Intro

|----------|---------|---------|------------|
|----------|---------|---------|--------9---|
|----------|---------|---------|-----9----9-|
|-7--------|---------|---------|------------|

|----------|---------|---------|----------|
|----------|---------|---------|----------|
|----------|---------|---------|----------|
|-7--------|---------|---------|-------7--|

|----------|----------|----------|------------|
|----------|----------|----------|--------9---|
|----------|----------|----------|-----9----9-|
|-7--------|-------7--|-7--------|------------|

|----------|---------|---------|----------|
|----------|---------|---------|----------|
|----------|---------|---------|----------|
|-7--------|---------|---------|-------7--|

||------------|-----------|------------|--------------||
||o-----------|-----------|------------|-------------o||
||o-2------2--|-2---------|------------|-------------o||
||------------|--------2--|-h2------2--|-h2----2-2----||

Verse

|-------------|----------|------------|-----------|-------| *last bar 2/4
|--------9----|-------4--|-h4------4--|-4------4--|-4--4--|
|-2--/9-------|----------|------------|-----------|-------|
|-------------|----------|------------|-----------|-------|

|-------------|----------|------------|-----------|--------| *last bar 2/4
|--------9----|-------4--|-h4------4--|-4------4--|-4--2---|
|-2--/9-------|----------|------------|-----------|------5-|
|-------------|----------|------------|-----------|--------|

|-----------|-----------|-----------|----------|
|-----------|-4----2----|-1------1--|-2--------|
|-4------4--|-----------|-----------|----------|
|-----------|-----------|-----------|----------|

|-----------|----------|-----------|----------|
|---2-------|----------|-----------|----------|
|-----------|-5--------|---5-------|-3--------|
|------5----|----------|------3----|----------|

|------------|
|-------2-5--|
|-----3------|
|------------|

|-------------|----------|------------|-----------|-------| *last bar 2/4
|--------9----|-------4--|-h4------4--|-4------4--|-4--4--|
|-2--/9-------|----------|------------|-----------|-------|
|-------------|----------|------------|-----------|-------|

|-------------|----------|------------|-----------|--------| *last bar 2/4
|--------9----|-------4--|-h4------4--|-4------4--|-4--2---|
|-2--/9-------|----------|------------|-----------|------5-|
|-------------|----------|------------|-----------|--------|

|-----------|-----------|-----------|----------|
|-----------|-4----2----|-1------1--|-2--------|
|-4------4--|-----------|-----------|----------|
|-----------|-----------|-----------|----------|

|-----------|----------|-----------|-----------|
|---2-------|----------|-----------|-----------|
|-----------|-5--------|---5-------|-3------3--|
|------5----|----------|------3----|-----------|

|------------|
|------------|
|-7----7--7--|
|------------|

Chorus

|-----------|--------16-16-|-----------|-----------14-|
|--------7--|--------------|-----------|--------14----|
|-5---------|-5------------|-0------7--|--------------|
|-----------|--------------|-----------|-5------------|

|-----------|-----------|-----------|-----------|
|-----------|-4------4--|-----------|-----------|
|-----------|-----------|-2---------|-----------|
|-7------7--|-----------|------2----|-3----7----|

|-----------|--------x-x-|-----------|-----------14-|
|--------7--|------------|-----------|--------14----|
|-5---------|-5----------|-0------7--|--------------|
|-----------|------------|-----------|-5------------|

|-----------|-----------|-----------|-----------|
|-----------|-----------|-----------|-----------|
|-----------|-----------|-----------|-----------|
|-7------7--|-2------2--|-3------3--|-3------3--|

|-----------|-------------|
|-----------|---------5-4-|
|-----------|-------------|
|-3------3--|-3--3--------|

Verse

|-------------|----------|----------|-----------|-------|
|--------9----|-------4--|-------4--|-4------4--|-4--4--|
|-2--/9-------|----------|----------|-----------|-------|
|-------------|----------|----------|-----------|-------|

|-------------|----------|------------|-----------|--------|
|--------9----|-------4--|-h4------4--|-4------4--|-4--2---|
|-2--/9-------|----------|------------|-----------|------5-|
|-------------|----------|------------|-----------|--------|

|-----------|-----------|-----------|----------|
|-----------|-4----2----|-1------1--|-2--------|
|-4------4--|-----------|-----------|----------|
|-----------|-----------|-----------|----------|

|-----------|----------|-----------|-----------|
|---2-------|----------|-----------|-----------|
|-----------|-5--------|---5-------|-3------3--|
|------5----|----------|------3----|-----------|

|------------|
|------------|
|-7----7--7--|
|------------|

Chorus/Ending

|-----------|--------x-x-|-----------|-----------14-|
|--------7--|------------|-----------|--------14----|
|-5---------|-5----------|-0------7--|--------------|
|-----------|------------|-----------|-5------------|

|-----------|-----------|-----------|-----------|
|-----------|-4------4--|-----------|-----------|
|-----------|-----------|-2---------|-----------|
|-7------7--|-----------|------2----|-3----7----|

|-----------|--------x-x-|-----------|--------11-9-|
|--------7--|------------|-----------|-------------|
|-5---------|-5----------|-0------7--|-------------|
|-----------|------------|-----------|-5-----------|
                                                 
|-----------|-----------|-----------|-----------|
|-----------|-----------|-----------|-----------|
|-----------|-----------|-2---------|-----------|
|-7------7--|-2------2--|------2----|-3----7----|

|-----------|--------x-x-|-----------|-----------14-|
|--------7--|------------|-----------|--------14----|
|-5---------|-5----------|-0------7--|--------------|
|-----------|------------|-----------|-5------------|
                                                 
|-----------|-----------|-----------|-----------|
|-----------|-----------|-----------|-----------|
|-----------|-----------|-2---------|-----------|
|-7------7--|-2------2--|------2----|-3----7----|

|-----------|--------x-x-|-----------|--------9-7-|
|--------7--|------------|-----------|------------|
|-5---------|-5----------|-0------7--|------------|
|-----------|------------|-----------|-5----------|
                                                 
|-----------|-----------|-----------|-----------|
|-----------|-----------|-----------|-----------|
|-----------|-----------|-2---------|-----------|
|-7------7--|-2------2--|------2----|-3----7----|

|-----------|--------x-x-|-----------|-----------14-|
|--------7--|------------|-----------|--------14----|
|-5---------|-5----------|-0------7--|--------------|
|-----------|------------|-----------|-5------------|
                                                 
|-----------|-----------|-----------|-----------|
|-----------|-----------|-----------|-----------|
|-----------|-----------|-2---------|-----------|
|-7------7--|-2------2--|------2----|-3----7----|

|-----------|-----x-x-x--|-----------|---------14-----|
|--------7--|------------|-----------|-7----14----14--|
|-5---------|-5----------|--------7--|----------------|
|-----------|------------|-5---------|----------------|

|-----------|-----------|-----------|-----------|
|-----------|-----------|-----------|-----------|
|-----------|-----------|-2---------|-----------|
|-7------7--|-2------2--|------2----|-3----7----|

|-----------|-----x--x--|-----------|-------------|
|--------7--|-----------|-----------|--------7----|
|-5---------|-5---------|--------7--|------7---7--|
|-----------|-----------|-5---------|-5-----------|

|-----------|-----------|-----------|-----------|
|-----------|-----------|-----------|-----------|
|-----------|-----------|-2---------|-----------|
|-7------7--|-2------2--|------2----|-3----7----|

|-----------|-----x-x-x-x--|-----------|---------14----|
|--------7--|--------------|-----------|-------x----14-|
|-5---------|-5------------|--------7--|---------------|
|-----------|--------------|-5---------|-5-------------|

|-----------|-----------|-----------|-----------|
|-----------|-----------|-----------|-----------|
|-----------|-----------|-2---------|-----------|
|-7------7--|-2------2--|------2----|-3----7----|

|------19------|-19--------*|
|----------19--|-----------*|
|-5------------|-----------*|
|--------------|-----------*|


-------------
Then Came You
-------------
(Sherman Marshall, Philip T. Pugh)

100BPM, 4/4

Intro

|---------|---------|---------|----------------|
|---------|---------|---------|------3-6-5-----|
|---------|---------|---------|--3-5-------5---|
|---------|---------|---------|--------------1-|

|---------------|--------------|----------------|---------------|
|---------------|--------------|--------------3-|--3-3--3-3-3---|
|---------3-5---|--------------|----------3-5---|---------------|
|--1-1--1-----1-|--1-1--1-1--1-|-1-1-1--1-------|-------------1-|

Verse

|-----------|-------------|----------|------------|
|-----------|-------------|----------|------------|
|-----------|-------------|--------5-|----------3-|
|-1-------1-|-----1-3-4-5-|----------|----5--6----|

|--------------|---------------|------------|--------------|
|--------8---8-|-7-7--3--------|------------|--------------|
|------8-------|-------3-------|------------|-3--3--3-3----|
|-6-6----------|--------5-5--5-|-3------5-6-|------------1-|

|----------------|---------------|---------------|--------------|
|------------3---|---------------|---------------|--------------|
|----------3-----|---------------|---------3-7-5-|--5-5-------3-|
|-1-1-1--1-----1-|--1-1--1-3-4-5-|--5-5--5-------|------5--6----|

|-------------|--------------|-------------|--------------|
|-------8---x-|-7---3--------|-------------|--------------|
|-----8-------|------3-------|-------------|-3--3--3------|
|-6-----------|-------5-5--5-|-3---3---5-6-|---------5--5-|

Chorus

|---------------|--------------|---------------|---------------|
|---------------|---0----------|---------------|---------------|
|-------5--5----|----0---------|----3-4-5-5----|---------------|
|-6-6-6------3--|-----1-5-5--6-|--6----------3-|--3-3-5--5-5-1-|

|--------------|--------------|----------------|-------------|
|--------------|--------------|----------------|-------------|
|-1--1-5--5----|------------6-|--6-6-6-6-6-6-6-|-6----1-1----|
|-----------3--|---3-3-5-5----|----------------|-----------1-|

|---------------|--------------|---------------|--------------|
|---------------|--------------|-------------3-|--3-3--3-3----|
|---------3-5---|--------------|---------3-5---|--------------|
|--1-1--1-----1-|--1-1--1-1--1-|--1-1--1-------|------------1-|

Verse

|-----------|-------------|----------|------------|
|-----------|-------------|----------|------------|
|-----------|-------------|--------5-|----------3-|
|-1-------1-|-----1-3-4-5-|----------|----5--6----|

|--------------|--------------|------------|--------------|
|-------8-8--8-|-7---3--------|------------|--------------|
|-----8--------|------3-------|------------|-3--3--3-3----|
|-6------------|-------5-5--5-|-3------5-6-|------------1-|

|--------------|---------------|---------------|--------------|
|-----------3--|---------------|---------------|--------------|
|---------3----|---------------|----------3-4--|--5-5-------3-|
|-1--1--1------|--1-1--1-3-4-5-|-5-5-5--5------|------5--6----|

|---------------|--------------|-------------|--------------|
|--------8-8--8-|-7---3--------|-------------|--------------|
|------8--------|------3-------|-------------|-3--3--3------|
|-6-6-----------|-------5-5--5-|-3---3---5-6-|---------5--5-|

Chorus

|---------------|---------------|---------------|-------------|
|---------------|---------------|---------------|-------------|
|-------5--5----|----x----------|----3-4-5-5----|-------------|
|-6-6-6------3--|--3--31-5-5--6-|--6----------3-|----5--5-5-1-|

|-------------|---------------|----------------|-------------|
|-------------|---------------|----------------|-------------|
|-1---5--5----|----x--------6-|--6-6-6-6-6-6-6-|-6----1-1----|
|----------3--|--3--31-5-5----|----------------|-----------1-|

|---------------|--------------|---------------|---------------|
|---------------|--------------|-------------3-|--3-3-3-3-3----|
|---------3-5---|--------------|---------3-5---|---------------|
|--1-1--1-----1-|--1-1--1-1--1-|--1-1--1-------|-------------3-|

Chord Change

|---------------|--------------|---------------|--------------|
|-----------2---|--------------|-----------2-5-|--5-5--5-5--5-|
|---------5-----|--------------|---------5-----|--------------|
|--3-3--3-----3-|--3-3--3-3--3-|--3-3--3-------|--------------|

|---------------|--------------|---------------|--------------|
|-----------2---|--------------|-----------2-5-|--5-5--5------|
|---------5-----|--------------|---------5-----|---------2--2-|
|--3-3--3-----3-|--3-3--3-3--3-|--3-3--3-------|--------------|

Chorus/Ending

|--------------|---------------|---------------|---------------|
|--------------|---------------|---------------|---------------|
|-3--3---------|--------2-2--3-|--3-5-6-7-7----|------2--2-2-2-|
|---------0-5--|--5-5-5--------|-------------5-|--5-5----------|

|-------------|-----------|----------------|-------------|
|-------------|-----------|----------------|-------------|
|-3-----------|-----2-----|----------------|------3-3----|
|-----0--0-5--|---------1-|--1-1-1-1-1-1-1-|-1---------3-|

|----------------|--------------|
|------------2-5-|--5-5--5------|
|----------5-----|---------2--2-|
|-3-3-3--3-------|--------------|

|-------------|------------|---------------|---------------|
|-------------|------------|---------------|---------------|
|-3-----------|-----2-2--3-|--3-5-6-7-7----|------2--2-2-2-|
|-----0--0-5--|------------|-------------5-|--5-5----------|

|-------------|------------|----------------|-------------|
|-------------|------------|----------------|-------------|
|-3--3--------|-----2-2----|----------------|------3-3----|
|--------0-5--|----------1-|--1-1-1-1-1-1-1-|-1---------3-|

|--------------|---------------|
|-----------2--|---5-5---------|
|---------5----|----------2--2-|
|--3-3--3------|-3------3------|

|---------------|------------|---------------|---------------|
|---------------|------------|---------------|---------------|
|-3-3-3---------|-----2-2--3-|--3-5-6-7-7----|------2--2-2-2-|
|-------0--0-5--|------------|-------------5-|--5-5----------|

|---------------|------------|----------------|-------------|
|---------------|------------|----------------|-------------|
|-3-3-3---------|-----2-2----|----------------|------3-3----|
|-------0--0-5--|----------1-|--1-1-1-1-1-1-1-|-1---------3-|

|--------------|---------------|
|-----------2--|--5-5--5-------|
|---------5----|---------2-5-2-|
|--3-3--3------|---------------|

|---------------|------------|---------------|----------------|
|---------------|------------|---------------|----------------|
|-3-3-3---------|-----2-2--3-|--3-5-6-7-7----|------2-2-2-2-2-|
|-------0--0-5--|------------|-------------5-|--5-5-----------|

|---------------|------------|----------------|-------------|
|---------------|------------|----------------|-------------|
|-3-3-3---------|-----2-2----|----------------|------3-3----|
|-------0--0-5--|----------1-|--1-1-1-1-1-1-1-|-1---------3-|

|---------------|---------------|
|-----------2-5-|--5-5----------|
|---------5-----|------5---2--2-|
|--3-3--3-------|--------3------|

|---------------|------------|---------------*|
|---------------|------------|---------------*|
|-3-3-3---------|-----2-2--3-|--3-5-6-7-7----*|
|-------0--0-5--|------------|-------------5-*| fade


-----------------------
There's No One Like You
-----------------------
(Hawes, Simmons)

88BPM, 4/4

Intro

||---------------|--------------|--------------|------------||
||o--------------|--------------|--------------|-----------o||
||o-4---4-4----1-|------------4-|-4---4----1---|-----------o||
||-----------1---|-4---4-4--46--|--------1---4-|------4-4---||

2/4
|-------|
|-------|
|-------|
|--4-4--|

Verse

4/4
|--------------|--------------|-------------|--------------|
|----------3---|--------------|-3-----------|--------------|
|-4---4--44----|-6-6--6----6--|-------------|-6---6----4---|
|------------6-|---------6----|-----1--6--6-|--------66--6-|

|--------------|--------------|---------------|-------------|
|---3-4-6------|----------3---|---------------|-3-----------|
|-6------------|-4---4--44----|-6-6--6----4-6-|-------------|
|----------4---|------------6-|---------66----|-----1--6--6-|

|----------------|---------------|----------68-|-----------6---|
|----------------|-3-------------|--------68---|---------68--6-|
|-6-6--6----4-6--|---------------|-----4-------|------4--------|
|---------66-----|-----1-1-111-2-|-4-----------|-4-4-----------|

Pre-Chorus

|---------------|------------|---------------|----------------| *Dotted Eighth
|-----------1-3-|------------|-1---1-1-----12|-3-3------------|
|---------------|------1-1-1-|---------1-4---|------------1-4-|
|-2-2--2-2------|------------|---------------|------1-1*-4----|

|-------------|--------------|-------------|-----------------|
|-1-----------|-1h1----------|-1-----------|-----------4-3-3-|
|-----1h1---14|------1h1---14|-----1--1----|-----------------|
|-------------|--------------|-----------4-|-2-2-2-2-2-------|

|------------|
|-1----------|
|------------|
|-------4-4--|

Chorus

|----------------|---------------|----------------|---------------|
|----------------|---------------|----------------|---------------|
|-4-4--4-4-4---1-|-------------4-|-4-4--4-4-4---1-|-------------4-|
|------------1---|-4-4--4--4-46--|------------1---|-4-4--4--4-46--|

|----------------|--------------|
|----------------|--------------|
|-4-4--4-4-44--1-|--------------|
|------------1---|-4-4-4---4-4--|

Verse

|--------------|---------------|--------------|--------------|
|----------3---|---------------|-3h3----------|--------------|
|-4---4--44----|-6h6--6----4-6-|--------------|-6---6------4-|
|------------6-|---------66----|------1--6--6-|--------666---|

|--------------|--------------|---------------|--------------|
|---3-4-6------|----------3---|---------------|-3h3----------|
|-6------------|-4---4--44----|-6h6--6----4-6-|--------------|
|----------4---|------------6-|---------66----|------1--6--6-|

|---------------|--------------|----------68-|-----------6--|
|---------------|-3------------|--------68---|---------68---|
|-6-6--6----4-6-|--------------|-----4-------|------4-------|
|---------66----|-----1--111-2-|-4-----------|-4h4----------|

Pre-Chorus

|---------------|------------|--------------|---------------| *Dotted Eighth
|-----------1-3-|------------|-1---1------1-|-3-------------|
|---------------|------1-1-1-|--------1-4---|-----------1-4-|
|-2-2--2-2------|------------|--------------|-----1-1*-4----|

|-------------|--------------|--------------|-----------------|
|-1h1---------|-1h1----------|-1-1----------|-----------4-3-3-|
|-----1h1---14|------1h1---14|------1--1----|-----------------|
|-------------|--------------|------------4-|-2-2-2-2-2-------|

|------------|
|-1----------|
|------------|
|-------4-4--|

Chorus

|----------------|---------------|---------------|---------------|
|----------------|---------------|---------------|---------------|
|-4-4--4-4-4---1-|-------------4-|-4-4--4-4----1-|-------------4-|
|------------1---|-4-4--4--4-46--|-----------1---|-4-4--4--4-46-6|

|----------------|--------------|
|----------------|--------------|
|-4-4--4-4-4---1-|--------------|
|------------1---|-4-4-4---4-4--|

Instrumental

|--------------|---------------|-------------|---------------|
|----------3---|---------------|-3h3---------|---------------|
|-4---4--44----|-6-6--6----4-6-|-------------|-6h6--6----6---|
|------------6-|---------66----|------1--6---|---------66--6-|

|----------------|-----------6--|-----------6--|
|-3h3------------|---------68---|---------68---|
|----------------|------4-------|------4-------|
|------1-1-111-1-|-4h4----------|-4h4----------|

Pre-Chorus

|---------------|------------|--------------|--------------|
|-----------1-3-|------------|-1---1------1-|-3-3----------|
|---------------|------1-1-1-|--------114---|--------------|
|-2-2--2-2------|------------|--------------|------1-1-1---|

|-------------|----------------|--------------|-----------------|
|-1-1---------|-1h1------------|-1-1----------|-----------4-3-3-|
|------1----14|------1-1-1-1-14|------1--1----|-----------------|
|-------------|----------------|------------4-|-2-2-2-2-2-------|

|------------|
|-1----------|
|------------|
|-------4-4--|

Chorus/Ending

|----------------|---------------|----------------|--------------|
|----------------|---------------|----------------|--------------|
|-4-4--4-4-44--1-|-------------4-|-4-4--4-4-44--1-|------------4-|
|------------1---|-4-4--4--4-46--|------------1---|-4-4--4---46-6|

|----------------|----------------|---------------|--------------|
|----------------|----------------|---------------|--------------|
|-4----4-4-44--1-|--------------4-|-4-4--4--44--1-|------------4-|
|----1-------1---|-4-4--4-4-4-46--|-----------1---|-4-4--4---46-6|

|-----------68-|---------------|-----------6--|--------------|
|---------68---|---------------|---------68---|--------------|
|-4-4--4-------|---------------|-4-4--4-------|------------4-|
|--------------|-4-4--4--4-4-6-|--------------|-4---4--4-46--|

|---------------|---------------|--------------|----------*|
|---------------|---------------|--------------|----------*|
|-4---4-4-44--1-|-------------4-|-4---4--4---1-|----------*|
|-----------1---|-4-4--4--4-46--|----------1---|-4--------*| fade


----------------------------------
Living a Little, Laughing a Little
----------------------------------
(Thom Bell, Linda Creed)

180BPM, 4/4

Verse

||----------|---------|---------|----------||
||o---------|---------|---------|---------o||
||o---------|---------|---------|---------o||
||----------|---------|---------|----------||

|----------|----------|-------------|-------------|
|----------|----------|-1--1--1--1--|-1--1--1--1--|
|----------|----------|-------------|-------------|
|-1--------|-----1----|-------------|-------------|

|----------|----------|----------|----------|
|----------|-------1--|----------|-------1--|
|----------|----------|----------|----------|
|-1--------|----------|-1--------|----------|

|----------|----------|----------|---------|
|----------|-------1--|----------|---------|
|----------|----------|----------|---------|
|-1--------|----------|-1--------|---------|

|---------|---------|
|---------|---------|
|---------|---------|
|---------|---------|

Verse

|-----------|-------------|----------|------------|
|-----------|-------------|----------|------------|
|-----------|----------3--|-------3--|-5----3-----|
|-1------1--|-3--5--6-----|----------|---------6--|

|---------|-----------|---------|-------------|
|---------|-----------|---------|----2--3-----|
|---------|--------5--|---------|-5--------3--|
|---------|---5-------|---------|-------------|

|-----------|-------------|----------|------------|
|-----------|----------3--|-------3--|-5----3-----|
|-1------1--|-3--5--6-----|----------|---------6--|
|-----------|-------------|----------|------------|

|---------|-----------|---------|------------|
|---------|-----------|---------|---5--3-----|
|---------|---5-------|---------|---------6--|
|---------|--------3--|---------|------------|

|---------|---------|-------------|-------------|
|---------|---------|-1--1--1--1--|-------------|
|---------|---------|-------------|-------------|
|---------|---------|-------------|-2--2--2--2--|

|-----------|-------------|----------|------------|
|-----------|-------------|----------|------------|
|-----------|----------3--|-------3--|-5----3-----|
|-1------1--|-3--5--6-----|----------|---------6--|

|---------|-----------|---------|-------------|
|---------|-----------|---------|----2--3-----|
|---------|--------5--|---------|-5--------3--|
|---------|---5-------|---------|-------------|

|-----------|-------------|----------|------------|
|-----------|----------3--|-------3--|-5----3-----|
|-1------1--|-3--5--6-----|----------|---------6--|
|-----------|-------------|----------|------------|

|---------|-----------|---------|------------|
|---------|-----------|---------|---5--3-----|
|---------|---5-------|---------|---------6--|
|---------|--------3--|---------|------------|

|---------|---------|-------------|-------------|
|---------|---------|-4--4--4--4--|-1--1--1-----|
|---------|---------|-------------|-------------|
|---------|---------|-------------|----------1--|

Chorus

|-------------|-------------|------------|-------------|
|-------------|-------------|------------|-------------|
|-------------|----1--------|------------|----5-----3--|
|-h1-h1----1--|-1-----1--3--|-h3------3--|-3-----3-----|

|------------|-------------|-----------|------------|
|-------1----|-1--1--1-----|------1----|----1-------|
|-3--1-------|----------3--|-3---------|-3----------|
|------------|-------------|-----------|---------1--|

|-------------|-------------|------------|-------------|
|-------------|-------------|------------|-------------|
|-------------|----1--------|------------|----5-----3--|
|-h1-h1----1--|-1-----1--3--|-h3------3--|-3-----3-----|

|-----------|-------------|-----------|---------|
|------1----|-1--1--1-----|------1----|---------|
|-3---------|----------3--|-3---------|---------|
|-----------|-------------|-----------|---------|

Verse

|-----------|-------------|----------|------------|
|-----------|-------------|----------|------------|
|-----------|----------3--|-------3--|-5----3-----|
|-1------1--|-3--5--6-----|----------|---------6--|

|---------|-----------|---------|-------------|
|---------|-----------|---------|----2--3-----|
|---------|--------5--|---------|-5--------3--|
|---------|---5-------|---------|-------------|

|-----------|-------------|----------|------------|
|-----------|----------3--|-------3--|-5----3-----|
|-1------1--|-3--5--6-----|----------|---------6--|
|-----------|-------------|----------|------------|

|---------|-----------|---------|------------|
|---------|-----------|---------|---5--3-----|
|---------|---5-------|---------|---------6--|
|---------|--------3--|---------|------------|

|---------|---------|-----------|-------------|
|---------|---------|-1------1--|-------------|
|---------|---------|-----------|-------------|
|---------|---------|-----------|-2--2--2--2--|

|-----------|-------------|----------|------------|
|-----------|-------------|----------|------------|
|-----------|----------3--|-------3--|-5----3-----|
|-1------1--|-3--5--6-----|----------|---------6--|

|---------|-----------|---------|-------------|
|---------|-----------|---------|----2--3-----|
|---------|--------5--|---------|-5--------3--|
|---------|---5-------|---------|-------------|

|-----------|-------------|----------|------------|
|-----------|----------3--|-------3--|-5----3-----|
|-1------1--|-3--5--6-----|----------|---------6--|
|-----------|-------------|----------|------------|

|---------|-----------|---------|------------|
|---------|-----------|---------|---5--3-----|
|---------|---5-------|---------|---------6--|
|---------|--------3--|---------|------------|

|---------|---------|------------|-------------|
|---------|---------|-4----4--4--|-1--1--1-----|
|---------|---------|------------|-------------|
|---------|---------|------------|----------1--|

Chorus

|-------------|-------------|-------------|-------------|
|-------------|-------------|-------------|-------------|
|-------------|----1--------|-------------|----5-----3--|
|-h1-h1----1--|-1-----1--3--|-h3-h3----3--|-3-----3-----|

|-----------|-------------|------------|------------|
|------1----|-1--1--1-----|-------1----|----1-------|
|-3---------|----------3--|-3--1-------|-3----------|
|-----------|-------------|------------|---------1--|

|-------------|-------------|-------------|-------------|
|-------------|-------------|-------------|-------------|
|-------------|----1--------|-------------|----5-----3--|
|-h1-h1----1--|-1-----1--3--|-h3-h3----3--|-3-----3-----|

|------------|-------------|------------|------------|
|-------1----|-1--1--1-----|-------1----|----1-------|
|-3--1-------|----------3--|-3-h3-------|-3----------|
|------------|-------------|------------|---------1--|

|-------------|-------------|-----------|-------------|
|-------------|-------------|-----------|-------------|
|-------------|----1--------|-----------|----5-----3--|
|-h1-h1----1--|-1-----1--3--|--h3----3--|-3-----3-----|

|------------|-------------|------------|------------|
|-------1----|-1--1--1-----|-------1----|----1-------|
|-3--1-------|----------3--|-3-h3-------|-3----------|
|------------|-------------|------------|---------1--|

|-------------|-------------|-------------|-------------|
|-------------|-------------|-------------|-------------|
|-------------|----1--------|-------------|----5-----3--|
|-h1-h1----1--|-1-----1--3--|-h3-h3----3--|-3-----3-----|

|------------|-------------|------------|------------|
|-------1----|-1--1--1-----|-------1----|----1-------|
|-3--1-------|----------3--|-3-h3-------|-3----------|
|------------|-------------|------------|---------1--|

|-------------|-------------|--------------|-------------|
|-------------|-------------|--------------|-------------|
|-------------|----1--------|--------------|----5-----3--|
|-h1-h1----1--|-1-----1--3--|-h3-h3-h3--3--|-3-----3-----|

|------------|-------------|------------|------------|
|-------1----|-1--1--1-----|-------1----|----1-------|
|-3--3-------|----------3--|-3--3-------|-3----------|
|------------|-------------|------------|---------1--|

|-------------|-------------|--------------|-------------|
|-------------|-------------|--------------|-------------|
|-------------|----1--------|--------------|----5-----3--|
|-h1-h1----1--|-1-----1--3--|-h3-h3-h3--3--|-3-----3-----|

|------------|-------------|-----------|------------|
|-------1----|-1--1--1-----|------1----|----1-------|
|-3--1-------|----------3--|-3---------|-3----------|
|------------|-------------|-----------|---------1--|

|-------------|-------------|----------|-------------|
|-------------|-------------|----------|-------------|
|-------------|----1--------|----------|----5-----3--|
|-h1-h1----1--|-1-----1--3--|-------3--|-3-----3-----|

|------------|-------------|-----------|------------|
|-------1----|-1--1--1-----|------1----|----1-------|
|-3--3-------|----------3--|-3---------|-3----------|
|------------|-------------|-----------|---------1--|

|-------------|-------------|----------|-------------|
|-------------|-------------|----------|-------------|
|-------------|----1--------|----------|----5-----3--|
|-h1-h1----1--|-1-----1--3--|-------3--|-3-----3-----|

|------------|-------------|------------|------------|
|-------1----|-1--1--1-----|-------1----|----1-------|
|-3--1-------|----------3--|-3-h3-------|-3----------|
|------------|-------------|------------|---------1--|

|-------------|-------------|----------|-------------|
|-------------|-------------|----------|-------------|
|-------------|----1--------|----------|----5-----3--|
|-h1-h1----1--|-1-----1--3--|-------3--|-3-----3-----|

|------------|-------------|-----------|------------|
|-------1----|-1--1--1-----|------1----|----1-------|
|-3--1-------|----------3--|-3---------|-3----------|
|------------|-------------|-----------|---------1--|

|-------------|-------------|----------|-------------|
|-------------|-------------|----------|-------------|
|-------------|----1--------|----------|----5-----3--|
|-h1-h1----1--|-1-----1--3--|-------3--|-3-----3-----|

|-----------|-------------|-----------|------------|
|------1----|-1--1--1-----|------1----|----1-------|
|-3---------|----------3--|-3---------|-3----------|
|-----------|-------------|-----------|---------1--|

|------------|-------------|-----------|-------------|
|------------|-------------|-----------|-------------|
|------------|----1--------|-----------|----5-----3--|
|-1--1----1--|-1-----1--3--|-3------3--|-3-----3-----|

|------------|-------------|------------|------------|
|-------1----|-1--1--1-----|-------1----|----1-------|
|-3--1-------|----------3--|-3--1-------|-3----------|
|------------|-------------|------------|---------1--|

|------------|-------------|------------|-------------|
|------------|-------------|------------|-------------|
|------------|----1--------|------------|----5-----3--|
|-1--1----1--|-1-----1--3--|-3--3----3--|-3-----3-----|

|------------|-------------|------------|------------|
|-------1----|-1--1--1-----|-------1----|----1-------|
|-3--1-------|----------3--|-3--3-------|-3----------|
|------------|-------------|------------|---------1--|

|------------|-------------|------------|-------------|
|------------|-------------|------------|-------------|
|------------|----1--------|------------|----5-----3--|
|-1--1----1--|-1-----1--3--|-3--3----3--|-3-----3-----|

|-----------|-------------|-----------|------------*|
|------1----|-1--1--1-----|------1----|----1-------*|
|-3---------|----------3--|-3---------|-3----------*|
|-----------|-------------|-----------|---------1--*| fade


-----
Sadie
-----
(Hawes, Jefferson, Simmons)

168BPM, 4/4

Intro

||----------|---------|---------|----------||
||o---------|---------|---------|---------o||
||o---------|---------|---------|---------o||
||----------|---------|---------|----------||

|-------------|---------|-----------|---------|
|-------4--7--|---------|-----------|---------|
|-5--7--------|---------|-4---------|---------|
|-------------|---------|--------2--|---------|

|-----------|---------|-----------|---------|
|-----------|---------|-----------|---------|
|-5---------|---------|-5------7--|---------|
|--------5--|---------|-----------|---------|

|-------------|---------|-------------|------------|
|-------4--7--|---------|-------------|------------|
|-5--7--------|---------|-------------|------------|
|-------------|---------|-5--5--5--5--|-5--5--5----|

Verse
                                           3x
||----------|---------|---------|----------||
||o---------|---------|---------|---------o||
||o---------|---------|---------|---------o||
||----------|---------|---------|----------||

|---------|---------|---------|------------|
|---------|---------|---------|------------|
|---------|---------|---------|----4h7\----|
|---------|---------|---------|------------|

||--------------|------------|---------|----------||
||o-------------|------------|---------|---------o||
||o----2--4-----|------2-----|---------|---------o||
||--5--------0--|---5-----2--|---------|----------||

|-------------|-----------|---------|-------------|
|-------------|--------1--|---------|-1--1--1-----|
|-------2--4--|-----4-----|---------|----------2--|
|-5--5--------|-----------|---------|-------------|

|---------|-----------|-----------|------------|
|---------|-----------|---2--2----|------------|
|---------|-2------5--|-----------|----4h7\----|
|---------|-----------|-----------|------------|

Chorus

|-----------|--------------|----------|-----------|
|-----------|-/9p=7--------|----------|-----------|
|-5------5--|--------9-----|----------|-7---------|
|-----------|-----------9--|-------9--|------5----|

|-----------|--------------|----------|-----------------|
|-----------|-/9p=7--------|----------|-----------------|
|-5------5--|--------9-----|----------|-7---------------|
|-----------|-----------9--|-------9--|---9-7-5-7-5-7-5-|

|-----------|--------------|----------|-----------|
|-----------|-/9p=7--------|----------|-----------|
|-5------5--|--------9--7--|----------|-----------|
|-----------|--------------|-------2--|-------2-5-|

|-------------|------------|-----------|-----------|
|-------------|------------|-----------|-----------|
|-2--2----2-3-|-4------2-4-|-5------7--|---9--7----|
|-------------|------------|-----------|-----------|

Verse

|-------------|------------|----------|---------|
|-------------|------------|----------|---------|
|----2--4-----|------2-----|----------|---------|
|-5--------0--|---5-----2--|-2--------|---------|

|-------------|------------|---------|---------|
|-------------|------------|---------|---------|
|----2--4-----|------2-----|---------|---------|
|-5--------0--|---5-----2--|---------|---------|

|-------------|-----------|---------|----------|
|-------------|--------1--|---------|----------|
|-------2--4--|-----4-----|---------|-------2--|
|-5--5--------|-----------|---------|----------|

|----------|-----------|-----------|------------|
|----------|-----------|---2--2----|------------|
|-2--------|-2------5--|-----------|----4h7\----|
|----------|-----------|-----------|------------|

||--------------|------------|---------|----------||
||o-------------|------------|---------|---------o||
||o----2--4-----|------2-----|---------|---------o||
||--5--------0--|---5-----2--|---------|----------||

|-------------|-----------|---------|-------------|
|-------------|--------1--|---------|-1--1--1-----|
|-------2--4--|-----4-----|---------|----------2--|
|-5--5--------|-----------|---------|-------------|

|---------|-----------|-----------|------------|
|---------|-----------|---2--2----|------------|
|---------|-2------5--|-----------|----4h7\----|
|---------|-----------|-----------|------------|

Chorus

|-----------|--------------|----------|-----------|
|-----------|-/9p=7--------|----------|-----------|
|-5------5--|--------9-----|----------|-7---------|
|-----------|-----------9--|-------9--|------5----|

|-----------|--------------|----------|-----------------|
|-----------|-/9p=7--------|----------|-----------------|
|-5------5--|--------9-----|----------|-7---------------|
|-----------|-----------9--|-------9--|---9-7-5-7-5-7-5-|

|-----------|--------------|----------|------------|
|-----------|-/9p=7--------|----------|------------|
|-5------5--|--------9--7--|----------|------------|
|-----------|--------------|-------2--|-2------2-5-|

|------------|-------------|-------------|-----------|
|------------|-------------|-------------|-----------|
|-2--2----3--|-4-------2-4-|-5--5--5--7--|---9--7----|
|------------|-------5-----|-------------|-----------|

||------------|--------------|----------|-----------|
||o-----------|-/9p=7--------|----------|-----------|
||o-5------5--|--------9-----|----------|-7---------|
||------------|-----------9--|-------9--|------5----|

|-----------|--------------|----------|-----------------|
|-----------|-/9p=7--------|----------|-----------------|
|-5------5--|--------9-----|----------|-7---------------|
|-----------|-----------9--|-------9--|---9-7-5-7-5-7-5-|

|-----------|--------------|----------|-----------|
|-----------|-/9p=7--------|----------|-----------|
|-5------5--|--------9--7--|----------|-----------|
|-----------|--------------|-------2--|-------2-5-|

|------------|--------------|-------------|------------||
|------------|--------------|-------------|-----------o||
|-2--2----3--|-4--4-----2-4-|-5--5--5--7--|---9--7----o||
|------------|--------5-----|-------------|------------||

||------------|--------------|----------|------------------||
||o-----------|-/9p=7--------|----------|-----------------o||
||o-5------5--|--------9-----|----------|-7---------------o||
||------------|-----------9--|-------9--|---9-7-5-7-5-7-5--||

|-----------|--------------|----------|-------------|
|-----------|-/9p=7--------|----------|---4---------|
|-5------5--|--------9--7--|----------|-------------|
|-----------|--------------|-------2--|-------2-4-5-|

|-----------|---------------|-------------|-----------|
|-----------|---------------|-------------|-----------|
|-2-------3-|-4--4--4---2-4-|-5--5--5--7--|---9--7----|
|-----------|---------5-----|-------------|-----------|

|-----------|--------------|----------|----------------|
|-----------|-/9p=7--------|----------|----------------|
|-5------5--|--------9-----|----------|-7--------------|
|-----------|-----------9--|-------9--|---9-7-5-7--7-5-|

|-----------|--------------|----------|---------------|
|-----------|-/9p=7--------|----------|---------------|
|-5------5--|--------9-----|----------|-7-------------|
|-----------|-----------9--|-------9--|----9-5-7--7-5-|

|-----------|--------------|----------|------------|
|-----------|-/9p=7--------|----------|------------|
|-5------5--|--------9--7--|----------|------------|
|-----------|--------------|-------2--|-2------2-5-|

|------------|-------------|-------------|-----------|
|------------|-------------|-------------|-----------|
|-2--2----3--|-4--4----2-4-|-5--5--5--7--|---9--7----|
|------------|-------------|-------------|-----------|

||------------|--------------|----------|------------------||
||o-----------|-/9p=7--------|----------|-----------------o||
||o-5------5--|--------9-----|----------|-7---------------o||
||------------|-----------9--|-------9--|---9-7-5-7-5-7-5--||

|-----------|--------------|----------|------------|
|-----------|-/9p=7--------|----------|------------|
|-5------5--|--------9--7--|----------|------------|
|-----------|--------------|-------2--|-2------2-5-|

|------------|--------------|-------------|-----------|
|------------|--------------|-------------|-----------|
|-2--2----3--|-4--4-----2-4-|-5--5--5--7--|---9--7----|
|------------|--------5-----|-------------|-----------|

|-----------|--------------|---------|----------------|
|-----------|-/9p=7--------|---------|----------------|
|-5------5--|--------9-----|---------|----------------|
|-----------|-----------9--|---------|-0-2-0-2-5--7-5-|

|-----------|--------------|---------|----------------|
|-----------|-/9p=7--------|---------|----------------|
|-5------5--|--------9-----|---------|----------------|
|-----------|-----------9--|---------|-0-2-5-2-5--7-5-|

|-----------|--------------|----------|------------|
|-----------|-/9p=7--------|----------|------------|
|-5------5--|--------9--7--|----------|------------|
|-----------|--------------|-------2--|-2------2-5-|

|------------|-------------|-------------|-----------|
|------------|-------------|-------------|-----------|
|-2--2-----3-|-4-------2-4-|-5--5--5--7--|---9--7----|
|------------|-------5-----|-------------|-----------|

|-----------|--------------|---------|---------------|
|-----------|-/9p=7--------|---------|---------------|
|-5------5--|--------9-----|---------|---------------|
|-----------|-----------9--|---------|-0--5-2-5--7-5-|

|-----------|--------------|---------|----------------|
|-----------|-/9p=7--------|---------|----------------|
|-5------5--|--------9-----|---------|----------------|
|-----------|-----------9--|---------|-0-2-0-2-5--7-5-|

|-----------|--------------|----------|--------------|
|-----------|-/9p=7--------|----------|--------------|
|-5------5--|--------9--7--|----------|--------------|
|-----------|--------------|-------2--|-2---2-2--2-5-|

|-----------|---------------|-------------|-----------|
|-----------|---------------|-------------|-----------|
|-2------2--|-4--4--4---2---|-5--5--5--7--|---9--7----|
|-----------|---------5---5-|-------------|-----------|

|-----------|--------------*|
|-----------|-/9--7--------*|
|-5------5--|--------9-----*|
|-----------|-----------9--*| fade


----------
Lazy Susan
----------
(Bell, Creed)

168BPM, 4/4

Intro

|-----|--------------|
|-----|-6------------|
|-6-8-|----8--6------|
|-----|---------8-6--|

||-------------|------------|-----------|---------------||
||o------------|------------|-----------|-6------------o||
||o----------6-|-8---6---4--|-------6-8-|----8--6------o||
||--4------8---|------------|-----------|---------8-6---||

|------------|------------|---------|------------|
|------------|------------|---------|---------6--|
|----------6-|-8---6---4--|---------|-4--6-------|
|-4------8---|------------|---------|------------|

|-----------|------------|-----------|------------|
|---6--6----|-6----------|-----------|------------|
|-----------|----6----8--|---8--8----|-8--4----3--|
|-----------|------------|-----------|------------|

Verse

|-------------|------------|-------------|------------|
|-------------|------------|-------------|------------|
|-h3-h3----3--|-2--2----2--|-------------|----3----3--|
|-------------|------------|-5--5----5-3-|-5----------|

|-----------|-------------|------------|------------|
|-----------|-------------|------------|------------|
|-----------|-------------|------------|--------2---|
|-1------1--|-0--0--1--1--|-3--3----3--|-3----5-----|

|-----------|-----------|---------------|------------|
|-----------|-----------|---------------|------------|
|-3------3--|-2------2--|---------------|----3----3--|
|-----------|-----------|-5--5-5h5--5-3-|-5----------|

|-------------|-------------|------------|-----------|
|-------------|-------------|------------|-----------|
|-------------|-------------|------------|----3------|
|-1--1--1--1--|-0--0--1--1--|-3--3----3--|-3---------|

Chorus

|--------------|--------------|--------------|--------------|
|--------------|--------------|--------------|-----------5--|
|----------333-|--3---------3-|----------3h3-|--3----5-7----|
|-1--3--5------|----5--3--5---|-1--3--5------|----5---------|

|--------------|--------------|--------------|--------------|
|--------------|--------------|--------------|-----------5--|
|----------3h3-|--3---------3-|----------3h3-|--3----5-7----|
|-1--3--5------|----5--3--5---|-1--3--5------|----5---------|

|--------------|--------------|-------------|--------------|------------|
|--------------|--------------|-------------|--------------|------------|
|----------3h3-|--3---------3-|-------------|--------------|---------3--|
|-1--3--5------|----5--3--5---|-1--3--5--4--|-h4--4--4--4--|-4--1-------|

Verse

|------------|------------|-------------|------------|
|------------|------------|-------------|------------|
|-h3------3--|-2--2----2--|-------------|----3----3--|
|------------|------------|-5--5----5-3-|-5----------|

|-----------|-------------|------------|------------|
|-----------|-------------|------------|------------|
|-----------|-------------|------------|--------2---|
|-1------1--|-0--0--1--1--|-3--3----3--|-3----5-----|

|------------|-------------|-------------|------------|
|------------|-------------|-------------|------------|
|-3--3----3--|-2--2------2-|-------------|----3----3--|
|------------|---------3---|-5--5----5-3-|-5----------|

|-------------|-------------|------------|-----------|
|-------------|-------------|------------|-----------|
|-------------|-------------|------------|----3------|
|-1--1--1--1--|-0--0--1--1--|-3--3----3--|-3---------|

Chorus

|--------------|--------------|--------------|--------------|
|--------------|--------------|--------------|-----------5--|
|----------333-|--3---------3-|----------3h3-|--3----5-7----|
|-1--3--5------|----5--3--5---|-1--3--5------|----5---------|

|--------------|--------------|--------------|--------------|
|--------------|--------------|--------------|-----------5--|
|----------3h3-|--3---------3-|----------3h3-|--3----5-7----|
|-1--3--5------|----5--3--5---|-1--3--5------|----5---------|

|--------------|--------------|-------------|------------|------------|
|--------------|--------------|-------------|------------|------------|
|----------3h3-|--3---------3-|-------------|------------|---------3--|
|-1--3--5------|----5--3--5---|-1--3--5--4--|---4--4--4--|-4--1-------|

Chorus

|-------------|------------|-------------|------------|
|-------------|------------|-------------|------------|
|-h3--3----3--|-2--2----2--|-------------|----3----3--|
|-------------|------------|-5--5----5-3-|-5----------|

|---------------|------------|--------------|-------------|
|---------------|------------|--------------|-------------|
|---------------|------------|--------------|---------0-2-|
|-1--1-1-1--1-1-|-0--0----0--|-1--1--5--5-5-|-3--3--------|

|------------|------------|-------------|------------|
|------------|------------|-------------|------------|
|-3--3----3--|-2--2----2--|-------------|----3----3--|
|------------|------------|-5--5----5-3-|-5----------|

|------------|-----------|-------------|------------|
|------------|-----------|-------------|------------|
|------------|-----------|-------------|------------|
|-1-h1----1--|-0------0--|-1-h1--5-h5--|-3--3----3--|

Chorus

|--------------|--------------|--------------|--------------|
|--------------|--------------|--------------|-----------5--|
|----------333-|--3---------3-|----------3h3-|--3----5-7----|
|-1--3--5------|----5--3--5---|-1--3--5------|----5---------|

|--------------|--------------|--------------|--------------|
|--------------|--------------|--------------|-----------5--|
|----------3h3-|--3---------3-|----------3h3-|--3----5-7----|
|-1--3--5------|----5--3--5---|-1--3--5------|----5---------|

|--------------|--------------|-------------|------------|------------|
|--------------|--------------|-------------|------------|------------|
|----------3h3-|--3---------3-|-------------|------------|---------3--|
|-1--3--5------|----5--3--5---|-1--3--5--4--|---4--4--4--|-4--1-------|

|---------|---------|
|---------|---------|
|---------|---------|
|---------|---------|

Chorus/Ending

||---------------|--------------|--------------|--------------|
||o--------------|--------------|--------------|-----------5--|
||o----------3h3-|--3---------3-|----------3h3-|--3----5-7----|
||--1--3--5------|----5--3--5---|-1--3--5------|----5---------|
                                                              3x
|--------------|--------------|--------------|----------------||
|--------------|--------------|--------------|-----------5---o||
|----------3h3-|--3---------3-|----------3h3-|--3----5-7-----o||
|-1--3--5------|----5--3--5---|-1--3--5------|----5--------0--||

|--------------|--------------|--------------|--------------|
|--------------|--------------|--------------|-----------5--|
|----------3h3-|--3---------3-|----------3h3-|--3----5-7----|
|-1--3--5------|----5--3--5---|-1--3--5------|----5---------|

|--------------|---------------|--------------|--------------|
|--------------|---------------|--------------|-----------5--|
|----------333-|--3----------3-|----------3h3-|--3----5-7----|
|-1--3--5------|----5-5-3--5---|-1--3--5------|----5---------|

|--------------|--------------|--------------|--------------|
|--------------|--------------|--------------|-----------5--|
|----------333-|--3---------3-|----------333-|--3----5-7----|
|-1--3--5------|----5--3--5---|-1--3--5------|----5---------|

|--------------|---------------|--------------|---------------|
|--------------|---------------|--------------|-----------5---|
|----------333-|--3----------3-|----------3h3-|--3----5-7-----|
|-1--3--5------|----5-5-3--5---|-1--3--5------|----5--------0-|

|--------------|--------------*|
|--------------|--------------*|
|----------3h3-|--3---------3-*|
|-1--3--5------|----5--3--5---*| fade


-----------------------------
I've Got to Make It on My Own
-----------------------------
(Hawes, Simmons)

120BPM, 4/4

Intro

|------------|---------------|---------------|---------------|
|------------|---------------|---------------|---------------|
|-1------1-1-|--1-1--1-1-1-1-|--1-1--1-1-1---|-------------1-|
|------------|---------------|-------------4-|--4-4--1-3-4---|

|------------|---------------|---------------|---------------|
|------------|---------------|---------------|---------------|
|-1------1-1-|--1-1--1-1-1-1-|--1-1--1-1-1---|-------------0-|
|------------|---------------|-------------4-|--4-4--1-3-4---|

Verse

|--------------|------------|--------------|------------|
|--------------|------------|--------------|----1--1--1-|
|-1---1-1-1--1-|------------|-1---1-1-1--1-|------------|
|--------------|----1--3--4-|--------------|------------|

|--------------|-------------|----------------|-------------|
|--------------|-------------|----------------|-------------|
|--------------|-------------|--------------1-|--1-1--1--1--|
|-4---4-4-4--3-|----3-3-3--1-|-h1---1-1-3-4---|-------------|

|--------------|------------|--------------|------------|
|--------------|------------|--------------|----1--1--1-|
|-1---1-1-1--1-|------------|-1---1-1-1--1-|------------|
|--------------|----1--3--4-|--------------|------------|

|--------------|-------------|---------------|---------------|
|--------------|-------------|---------------|---------------|
|--------------|-------------|-------------5-|--5-5----------|
|-4---4-4-4--3-|----3-3-3--1-|--1-1-3--3-3---|------3--3-3-3-|

Chorus

|---------------|----------------|---------------|----------------| *Dotted Eighths
|---------------|----------------|---------------|----------------|
|---------3-----|----3*--3-3-1-1-|---------3-----|----3*--3-3-1-1-|
|-4---4-4---4-3-|--3----3--------|-4---4-4---4-3-|--3----3--------|

|-------------|------------|---------------|-----------------|
|-------------|------------|---------------|-----------------|
|-------------|------------|---------3-----|----3*-x3-3-1-1--|
|-4----3-3--1-|----1-3--3--|-4---4-4---4-3-|--3--------------|

|---------------|----------------|--------------|-------------|
|---------------|----------------|--------------|-------------|
|---------3-----|----3*--3-3-1-1-|--------------|-----------0-|
|-4---4-4---4-3-|--3----3--------|-4---4-3-3--1-|-----1-3-4---|

|----------------|----------------|-----------------|----------------|
|----------------|----------------|-----------------|----------------|
|-1--1*-x1-1-1-1-|--1-1*-x1-1-1-1-|-1-1-1*-x1-1-1---|----------------|
|----------------|----------------|---------------4-|--4-4-1x4-4-1-11|

Verse

|--------------|-------------|---------------|------------|
|--------------|-------------|---------------|----1--1--1-|
|-1---1-1-1--1-|-1-----------|-1h1--1-1-1--1-|------------|
|--------------|-----1--3--4-|---------------|------------|

|--------------|-------------|---------------|---------------|
|--------------|-------------|---------------|---------------|
|--------------|-------------|-------------1-|--1-1--1-1-1-1-|
|-4---4-4-4--3-|----3-3-3--1-|-h1----1-3-4---|---------------|

|--------------|-------------|--------------|------------|
|--------------|-------------|--------------|----1--1--1-|
|-1---1-1-1--1-|-1-----------|-1h1--11-1--1-|------------|
|--------------|-----1--3--4-|--------------|------------|

|--------------|-------------|---------------|---------------|
|--------------|-------------|---------------|---------------|
|--------------|-------------|-------------5-|--5-5----------|
|-4---4-4-4--3-|----3-3-3--1-|--1-1-3--3-3---|------3--3-3-3-|

Chorus

|---------------|----------------|--------------|----------------|
|---------------|----------------|--------------|----------------|
|---------3-----|----3*-x3-3-1-1-|--------3-----|----3*-x3-3-1-1-|
|-4---4-4---4-3-|--3-------------|-4---x4---4-3-|--3-------------|

|------------|------------|--------------|----------------|
|------------|------------|--------------|----------------|
|------------|------------|--------3-----|----3--x3-3-1-1-|
|-4----3---1-|----1-3--3--|-4---x4---4-3-|--3-------------|

|--------------|----------------|-------------|-------------|
|--------------|----------------|-------------|-------------|
|--------3-----|----3--x3-3-1-1-|-------------|-----------1-|
|-4---x4---4-3-|--3-------------|-4---4-3---1-|-----1-3-4---|

|----------------|----------------|-----------------|----------------|
|----------------|----------------|-----------------|----------------|
|--1-1*-x1-1-1-1-|--1-1*-x1-1-1-1-|-1-1-1*-x1-1-1---|----------------|
|----------------|----------------|---------------4-|--4-4*-x4-4-3-4-|

Instrumental

|--------------|-------------|--------------|------------|
|--------------|-------------|--------------|----1--1--1-|
|-1---1-1-1--1-|-1-----------|-1h1--x1-1--1-|------------|
|--------------|-----1--3--4-|--------------|------------|

|--------------|-------------|----------------|---------------|
|--------------|-------------|----------------|---------------|
|--------------|-------------|----------------|--5-5----------|
|-4---x4-4-4-3-|----3-3-3--1-|-h1-1-1-3--3-3--|------3--3-3-3-|

Chorus/Ending

|--------------|----------------|--------------|---------------|
|--------------|----------------|--------------|---------------|
|--------3-----|----3*--3-3-1-1-|--------3-----|----3--3-3-1-1-|
|-4---x4---4-3-|--3----3--------|-4---x4---4-3-|--3------------|

|--------------|-------------|---------------|---------------|
|--------------|-------------|---------------|---------------|
|--------------|-------------|---------3-----|----3--3-3-1-1-|
|-4---4-3-3--3-|-1-1--1-3----|-4---4-4---4-3-|--3------------|

|---------------|---------------|-------------|------------|
|---------------|---------------|-------------|------------|
|---------3-----|----3--3-3-1-1-|-------------|------------|
|-4---4-4---4-3-|--3------------|-4---4-3---1-|----1-3--3--|

|----------------|----------------|---------------|----------------|
|----------------|----------------|---------------|----------------|
|----------3-----|----3*-x3-3-1-1-|---------3-----|----3*-x3-3-1-1-|
|-4h4--4-4---4-3-|--3-------------|-4---4-4---4-3-|--3-------------|

|--------------|------------|---------------|----------------*|
|--------------|------------|---------------|----------------*|
|--------------|------------|---------3-----|----3*--3-3-1-1-*|
|-4---4-3-3--1-|----1-3--3--|-4---4-4---4-3-|--3----3--------*| fade


----------
Tabbed by w.g.wilson (199X) using Powertab Editor.
I make no money from the writing of these tabs.
Добавлено: 05.10.2013
Другие материалы по этой песне:
  • Аккорды и текст

Страница создана 05.10.2013
http://primanota.ru/spinners/new-and-improved-album-chords.htm
Привет, Гость.
Предлагаем пройти революционный курс по гитаре.
Подарок от PrimaNota.Ru, забирай!