PrimaNota.ru - самый крупный в мире бесплатный архив песенных текстов, аккордов, табулатур и нот


Spinners - Ill Be Around - аккорды и текст, таба, бас-таба, видео

Регистрация Запомнить меня
Войти через:  Facebook Google Twitter Vk Yandex Mail.ru

Spinners - Ill Be Around - аккорды и текст, таба, бас-таба, видео

Печатать
Просмотров: 125
Ill Be Around
Spinners


                            I'll Be Around
                             (Bell - Hurtt)

Intro [2X]:
 
	octave guitar:

	 v    v     
	------7s11-|
	-7s9-------|
	-----------|
	------9s13-|
	-9s11------|
	-----------|

	clavinet/vibes arr. for guitar (basic riff of song):

	      E7M               G#m  D#m/F#             G#m E7M  
	 v    v      v    v    v    v       v    v    v    v
	-----------|-------------4-----2--|--------------4-------|
	--------4--|-------------4-----4--|--------------4----4--|
	--------4--|:------------4-----3--|--------------4----4-:|
	--------6--|:------------6-----4--|--------------6----6-:|
	--------7--|----------------------|-------------------7--|
	-----------|----------------------|----------------------|


Verse 1:

	E7M   G#m D#m/F#       G#m    E7M   [etc.]
	This        is our fork .....

Chorus:

	Whenever you call me ....
	Whenever you want me ....
	                             D#m/F# [hold]
	Whenever you need ....
	         E7M  
	I'll be a....

Verse 2:

	I knew just what ....

[repeat chorus]

Instrumental break: repeat basic riff 4X

[repeat chorus to fade]


-- another ace 70's tab from Andrew Rogers


Добавлено: 21.12.2013
Другие материалы по этой песне:

Страница создана 24.03.2012
http://primanota.ru/spinners/ill-be-around-chords.htm
Привет, Гость.
Предлагаем пройти революционный курс по гитаре.
Подарок от PrimaNota.Ru, забирай!