PrimaNota.ru - самый крупный в мире бесплатный архив песенных текстов, аккордов, табулатур и нот


Spineshank - The Reckoning - текст песни, таба, видео

Регистрация Запомнить меня
Войти через:  Facebook Google Twitter Vk Yandex Mail.ru

Spineshank - The Reckoning - текст песни, таба, видео

Печатать
Просмотров: 84
Spineshank: The Reckoning

Transcribed by: mysticguitar77

YouTube Username: MysticGuitar77

Date last modified: December 16, 2012

Tuning: Drop C (C,G,C,F,A,D)

Riff 1    "Ahhhhhhh!!"
D|-----------------------|
A|-----------------------|
F|-6-6/7-7/8-8/9-9/10-11-|
C|-5-5/6-6/7-7/8-8/9--10-|
G|-4-4/5-5/6-6/7-7/8--9--|
C|-----------------------|

Play Riff 1 x4

Riff 2
D|------------------|
A|------------------|
F|------------------|
C|------------------|
G|------------------|
C|-0011330044331133-|

Play Riff 2 x4   
Play Riff 1 x4    "Ahhhhhhh!!"

Fill 1
D|-------------------------|
A|-------------------------|
F|-------------------------|
C|---3~----------------\\\-|
G|---3~------pickslide-\\\-|
C|-0-3~----------------\\\-|

Riff 3    "Cut, pain divides..."
D|------------------------------------------------------|
A|------------------------------------------------------|
F|------------------------------------------------------|
C|-2-2---2-2--2-2---2-2--2-2---2-2----------------------|
G|-2-2---2-2--2-2---2-2--2-2---2-2----------------------|
C|-2-2---2-2--2-2---2-2--2-2---2-2--2-2-1-1/4-5-5-4-4-1-|

Play Riff 3 x4   "Blame yourself, damage done..."
                  (last time through repeat the last part an additional time)
Play Riff 2 x4   "Spread your misery..."
Play Riff 1 x3

Fill 2
D|-------------------|
A|-------------------|
F|-------------------|
C|-------------------|
G|-------------------|
C|-0-3b4-3b4-3b4-3b4-|
 
Play Riff 3 x2   "The deprivation of your hidden lie..."
                  (last time through repeat the last part an additional time)
Play Riff 2 x3   "Fall, begin descent..."
                  (this riff is followed by Fill 2)

Riff 4   "There's no redemption for a life of this kind..."
D|-------------------------------------|
A|-------------------------------------|
F|-7-7-7-7-9-9-9-9-10-10-10-10-9-9-9-9-|
C|-x-x-x-x-x-x-x-x-x--x--x--x--x-x-x-x-|
G|-5-5-5-5-7-7-7-7-8--8--8--8--7-7-7-7-|
C|-------------------------------------|

D|-------------------------------------------------|
A|-------------------------------------------------|
F|-12-12-12-12-12-12-12-12-11-11-11-11-11-11-11-11-|
C|-x--x--x--x--x--x--x--x--x--x--x--x--x--x--x--x--|
G|-10-10-10-10-10-10-10-10-9--9--9--9--9--9--9--9--|
C|-------------------------------------------------|

D|--------------------------------------------------------------|
A|--------------------------------------------------------------|
F|-7-7-7-7-9-9-9-9-10-10-10-10-5-5-5-5--------------------------|
C|-x-x-x-x-x-x-x-x-x--x--x--x--x-x-x-x-8-8-8--8-8--7-7--7-7-7-7-|
G|-5-5-5-5-7-7-7-7-8--8--8--8--3-3-3-3-8-8-8--8-8--8-8--8-8-8-8-|
C|-------------------------------------8-8-8--8-8--7-7--7-7-7-7-|

          "Self-preservation the motives collide..."
D|-------------------------------------|
A|-------------------------------------|
F|-7-7-7-7-9-9-9-9-10-10-10-10-9-9-9-9-|
C|-x-x-x-x-x-x-x-x-x--x--x--x--x-x-x-x-|
G|-5-5-5-5-7-7-7-7-8--8--8--8--7-7-7-7-|
C|-------------------------------------|

D|-------------------------------------------------|
A|-------------------------------------------------|
F|-12-12-12-12-12-12-14-14-11-11-11-11-11-11-11-11-|
C|-x--x--x--x--x--x--x--x--x--x--x--x--x--x--x--x--|
G|-10-10-10-10-10-10-12-12-9--9--9--9--9--9--9--9--|
C|-------------------------------------------------|

D|--------------------------------------------------------------|
A|--------------------------------------------------------------|
F|-7-7-7-7-9-9-9-9-10-10-10-10-9-9-9-9--------------------------|
C|-x-x-x-x-x-x-x-x-x--x--x--x--x-x-x-x-8-8-8--8-8--7-7--7-7-7-7-|
G|-5-5-5-5-7-7-7-7-8--8--8--8--7-7-7-7-8-8-8--8-8--8-8--8-8-8-8-|
C|-------------------------------------8-8-8--8-8--7-7--7-7-7-7-|

Fill 3
D|----------------------------------------------------------|
A|----------------------------------------------------------|
F|----------------------------------------------------------|
C|-5-5-5--5-5--4-4--4-4-4-4---------------------------------|
G|-5-5-5--5-5--4-4--4-4-4-4------------------------feedback-|
C|-5-5-5--5-5--4-4--4-4-4-4-0-3b4-3b4-3b4-3b4/10~-----------|

Riff 5    "There's no reason now..."
D|--------------------------------------------------------------------|
A|-----10-10-----10-10-----10-10--11-11-11-11-11-11-11-11-11-11-11-11-|
F|-----13-13-----13-13-----13-13--14-14-14-14-14-14-14-14-14-14-14-14-|
C|--------------------------------------------------------------------|
G|-0-2-------0-2-------0-2--------------------------------------------|
C|-0-2-------0-2-------0-2--------------------------------------------|

Play Riff 5 x5   "There's no reason now..."
                  (final time through continue strumming that last chord)
Play Riff 2 x2   "Fall, begin descent..."

Riff 6    "Cannot prevent this life..."
D|-----------------|
A|-----------------|
F|-----------------|
C|-----------------|
G|-0-1-3-0-4-3-1-3-|
C|-0-1-3-0-4-3-1-3-|
   * * * * * * * *

Play Riff 6 x4    (play Fill 2 after)
Play Riff 4       "There's no redemption for a life of this kind..."

Ending
D|-----------------------------------|
A|-----------------------------------|
F|-----------------------------------|
C|-5-5-5--5-5--4-4--4-4-4-4-0~-------|   (fades out while another guitar
G|-5-5-5--5-5--4-4--4-4-4-4-0~-------|    plays Riff 5 with light distortion)
C|-5-5-5--5-5--4-4--4-4-4-4-0~-------|

Enjoy!!!
Добавлено: 22.07.2013
Вам также может быть интересно:
Другие материалы по этой песне:
  • Аккорды и текст

Страница создана 22.07.2013
http://primanota.ru/spineshank/the-reckoning-chords.htm
Привет, Гость.
Предлагаем пройти революционный курс по гитаре.
Подарок от PrimaNota.Ru, забирай!