PrimaNota.ru - самый крупный в мире бесплатный архив песенных текстов, аккордов, табулатур и нот


Spineshank - The Endless Disconnect - таба, видео

Регистрация Запомнить меня
Войти через:  Facebook Google Twitter Vk Yandex Mail.ru

Spineshank - The Endless Disconnect - таба, видео

Печатать
Просмотров: 54
Spineshank: The Endless Disconnect

Transcribed by: mysticguitar77

YouTube Username: MysticGuitar77

Date last modified: December 16, 2012

Tuning: Drop C (C,G,C,F,A,D)

Riff 1   "I see all your reasons why..."
D|-----------------------------------------------------------------|
A|-----------------------------------------------------------------|
F|-----------------------------------------------------------------|
C|-----------------------------------------------------------------|
G|-----------------------------------------------------------------|
C|-8-0-0-7-7-0-5-7-8-0-0-7-7-0-5-7-8-0-0-7-7-0-5-7-5-5-5-5-1-1-1-1-|

Play Riff 1 x4   "You're like a second hand at suicide..."

Riff 2    "...your delusion that begins the end of you!!"
D|------------------------------------------|
A|------------------------------------------|
F|-8-8-----8-8-----8-8-----8-8-----8-----8\-|
C|-x-x-----x-x-----x-x-----x-x-----x-----x--|
G|-6-6-----6-6-----6-6-----6-6-----6-----6\-|
C|-----0-0-----0-0-----0-0-----0-0---0-0----|
       * *     * *     * *     * *   * *

Riff 3    "Now you've fallen to the ground..."
D|---------------------------------------------------------------------|
A|---------------------------------------------------------------------|
F|---------------------------------------------------------------------|
C|-2-2-2-2-2-2-2-2-5-5-5-5-4-4-4-4-2-2-2-2-2-2-2-2-5-5-5-5-10-10-10-10-|
G|-2-2-2-2-2-2-2-2-5-5-5-5-4-4-4-4-2-2-2-2-2-2-2-2-5-5-5-5-10-10-10-10-|
C|-2-2-2-2-2-2-2-2-5-5-5-5-4-4-4-4-2-2-2-2-2-2-2-2-5-5-5-5-10-10-10-10-|

Play Riff 3 x2    "It's all the endless disconnect..."
Play Riff 1 x5    "Break and bleed until you see the light..."
Play Riff 2 x1    "...that will kill what's left of you!!"
Play Riff 3 x2    "Now you've fallen to the ground..."
Play Riff 2 x2

Riff 4
D|--------------------------------------|
A|--------------------------------------|
F|---7-7---7-7---10-10---10-10---9-9----|
C|-----------------------------------10-|   x2
G|--------------------------------------|
C|-0-----0-----0-------0-------0--------|

D|---------------------------------|
A|---------------------------------|
F|---7-7---7-7---7-7---7-7---------|
C|---------------------------------|
G|---------------------------------|
C|-5-----5-----8-----8-----8-7-5-3-|

Play Riff 4 x2

Riff 5    "Your star's fading, you're just a memory..."
     (tremolo pick all notes)
D|-----------------------------------------------------------------|
A|-----------------------------------------------------------------|
F|-7'---10'-9'-5'-7'---10'-9'-5'-10'---14'-12'-9'-10'---14'-12'-9'-|
C|-----------------------------------------------------------------|
G|-----------------------------------------------------------------|
C|-----------------------------------------------------------------|

D|----------------|
A|----------------|
F|-7'---10'-9'-5'-|
C|----------------| (this part repeats 4 times, last time through
G|----------------|  ends on the 5th fret)
C|----------------|

Play Riff 3 x4    "Now you've fallen to the ground..."
                  (begins on the 5-5-5 chord this time)
Play Riff 2 x2    (ends with the 2-2-2 chord)

Enjoy!!!
Добавлено: 25.09.2013
Другие материалы по этой песне:
  • Аккорды и текст

Страница создана 25.09.2013
http://primanota.ru/spineshank/the-endless-disconnect-chords.htm
Привет, Гость.
Предлагаем пройти революционный курс по гитаре.
Подарок от PrimaNota.Ru, забирай!