PrimaNota.ru - самый крупный в мире бесплатный архив песенных текстов, аккордов, табулатур и нот


Spineshank - Slavery - текст песни, таба, видео

Регистрация Запомнить меня
Войти через:  Facebook Google Twitter Vk Yandex Mail.ru

Spineshank - Slavery - текст песни, таба, видео

Печатать
Просмотров: 145
ENOTICE!: Mike Sariskyn from spineshank(guitarist) tabbed this, I DID NOT so please the 
should go to him for taking his time to do this and of course it is 100% without a doubt 
its done by the guy who made it,
I thought id take the time tho to bring it UG and share it so thank you everyone)

SLAVERY
TUNING: A, E, A, D, F#, B
the opening riff is is pretty tricky, count with the drums and the “blast beat” parts 
actually picked in 32nd
notes. other than that the other are retty simple to play. the bridge “slavery”riff has 
be downpicked and muted
at the stops. good luck!!!!!!!

INTRO RIFF( repeat  4 times then let ring on the 2nd fret chord which is a B)
B ||--------------------------------------------------||
F#||--------------------------------------------------||
D ||--------------------------------------------------||
A ||--------------------------------------------------||
E ||---2--0-0----7-7-7-7-8-8-8-8-10-10-10-10-5-5-5-5--||
A ||---2--0-0-----------------------------------------||


VERSE INTRO (repeat 2 times)
B ||-------------------------------------------------||
F#||-------------------------------------------------||
D ||-------------------------------------------------||
A ||------9-9-9--7-7-7--9-9-9--7-7-7---10-10--12-12--||
E ||------7-7-7--5-5-5--7-7-7--5-5-5----8--8--10-10--||
A ||-------------------------------------------------||

VERSE
B ||-----------------------------------||
F#||-----------------------------------||
D ||-----------------------------------||
A ||-----------------------------------||
E ||--2-2-2-0-0-0-2-2-2-0-0-0-3-3-5-5--||
A ||--2-2-2-0-0-0-2-2-2-0-0-0-3-3-5-5--||

CHORUS 1
B ||----------------------------------------------------------------------||
F#||----------------------------------------------------------------------||
D ||----------------------------------------------------------------------||
A ||----------------------------------------------------------------------||
E ||--0-0-0-0-0-0-0-0-0-0-0-0-0-0-0-3-3-3-3-3-3-3-3-3-3-3-3-3-3-3-3-5-5-5-||
A ||--0-0-0-0-0-0-0-0-0-0-0-0-0-0-0-0-3-3-3-3-3-3-3-3-3-3-3-3-3-3-3-3-5-5-||

B ||--------------------------------------------||
F#||--------------------------------------------||
D ||--------------------------------------------||
A ||-----------------------------------------0--||
E ||-5-5-5-5-5-5-5-5-5-5-5-5-5-8-8-8-8-8-8------||
A ||-5-5-5-5-5-5-5-5-5-5-5-5-5-5-5-5-8-8-8-8----||

B ||----------------------||
F#||----------------------||
D ||----------------------||
A ||------------7---7-----||
E ||-8-8-8-8-8--7---7-----||
A ||-8-8-8-8-8--7---7-----||

CHORUS 2 (THIS FEELS LIKE SLAVERY)
B ||---------------------------------------------------------------||
F#||---------------------------------------------------------------||
D ||---------------------------------------------------------------||
A ||-0--0-----------0--0-----------0--0----------------------------||
E ||-0--0----1-0-1--0--0----1-0-1--0--0----1-0-1--0--3-3-3-3-3-3-3-||
A ||-0--0----1-0-1--0--0----1-0-1--0--0----1-0-1--0--3-3-3-3-3-3-3-||


*BREAKDOWN (same as CHORUS 1 chords with backward effect)

*BUILDUP (same as CHORUS 1 also doubled an octave higher with wah pedal and noize)
Добавлено: 07.04.2012
Другие материалы по этой песне:

Страница создана 28.02.2012
http://primanota.ru/spineshank/slavery-chords.htm
Привет, Гость.
Предлагаем пройти революционный курс по гитаре.
Подарок от PrimaNota.Ru, забирай!