PrimaNota.ru - самый крупный в мире бесплатный архив песенных текстов, аккордов, табулатур и нот


Spineshank - Play God - аккорды и текст, таба, видео

Регистрация Запомнить меня
Войти через:  Facebook Google Twitter Vk Yandex Mail.ru

Spineshank - Play God - аккорды и текст, таба, видео

Печатать
Просмотров: 135
Play God
Spineshank
song:play god
by:spineshank
tuning:detuned
tabbed by:josh tonkin

into
1.----------------------------------
2.----------------------------------
3.----------------------------------
4.----------------------------------
5.--7-7-7-7-2-2-2-2-3-3-3-3-5-5-5-5-
6.--7-7-7-7-2-2-2-2-3-3-3-3-5-5-5-5-

verse
1.--------66----------66-------66-------66--
2.-------------------------------------------
3.------------------------------------------
4.------------------------------------------
5.-------------------------------------------
6.----------------------------------------------


pre chourus
1.-------------------------
2.-----------------------
3.------------------------
4.-----------------------
5.--6666666-88-6666666-88
6.--6666666-88-6666666-88

   chorus
1.----------------------------------
2.----------------------------------
3.----------------------------------
4.----------------------------------
5.--7-7-7-7-2-2-2-2-3-3-3-3-5-5-5-5-
6.--7-7-7-7-2-2-2-2-3-3-3-3-5-5-5-5-


outro
1.--------------------------
2.-------------------------
3.--------------------------
4.---------------------------
5.-6666666-88-666666666-88---
6.-6666666-88-666666666-88-----
     
Добавлено: 10.07.2013
Другие материалы по этой песне:

Страница создана 03.05.2012
http://primanota.ru/spineshank/play-god-chords.htm
Привет, Гость.
Предлагаем пройти революционный курс по гитаре.
Подарок от PrimaNota.Ru, забирай!