PrimaNota.ru - самый крупный в мире бесплатный архив песенных текстов, аккордов, табулатур и нот


Spineshank - I Want You To Know - таба, видео

Регистрация Запомнить меня
Войти через:  Facebook Google Twitter Vk Yandex Mail.ru

Spineshank - I Want You To Know - таба, видео

Печатать
Просмотров: 68
Spineshank: I Want You To Know

Transcribed by: mysticguitar77

YouTube Username: MysticGuitar77

Date last modified: December 16, 2012

Tuning: Drop C (C,G,C,F,A,D)

Riff 1
D|--------------------------|
A|--------------------------|
F|--------------------------|
C|--------------------------|
G|-0-0----------------------|
C|-0-0-3b-3b-3b-3b-3b-3b-3b-|
   * *

Play Riff 1 x4

Riff 2 - clean    "The curse of darkness falls..."
D|-----------------------------------|
A|-3~---------------3~---------------|
F|-2~---7~--8~--5~--2~---7~--8~--3~--|
C|-0~---7~--7~--3~--0~---7~--7~--1~--|
G|-0~---5~--5~--3~--0~---5~--5~--1~--|
C|-0~---5~--5~--3~--0~---5~--5~--1~--|

Riff 3    "Without guilt to make them win..."
D|-----------------------------------|
A|-----------10-----------10---------|
F|-8-7-8-7-8----8-7-8-7-8----8-7-8-7-|
C|-----------------------------------|
G|-----------------------------------|
C|-----------------------------------|
   * * * * *    * * * * *    * * * *
                             ^ (final time through slide down from this note)

Play Riff 3 x4   "And we lose another day..."

Riff 4   "I want you to know that you shouldn't be here..."
D|----------------------------------|
A|----------------------------------|
F|----------------------------------|
C|-0-----8-----5-----3----2----1----| (the numbers after the each chord
G|-0-x16-8-x16-5-x16-3-x8-2-x4-1-x4-|  are the number of times you strum
C|-0-----8-----5-----3----2----1----|  each chord)

Play Riff 4 x2   "I think you should go..."
Play Riff 1 x2
Play Riff 2 x1   "Serenity lies in the hearts that still believe..."
Play Riff 3 x4   "That in fact we do deceive believing..."
Play Riff 4 x2   "I want you to know that you shouldn't be here..."
Play Riff 1 x2

Riff 5   "Do you think that I would change..."
D|-----------------------------------|
A|-----------------------------------|
F|-----------------------------------|
C|-----3-3-3\2-2-2-2/6-6-6-6\5-5-5-5-|
G|-0-0-3-3-3\2-2-2-2/6-6-6-6\5-5-5-5-|
C|-0-0-3-3-3\2-2-2-2/6-6-6-6\5-5-5-5-|
   * *

Play Riff 5 x4    "Never see the light of day..."

Riff 6 w/ delay  "I want you to know..."
D|-------------------------|
A|-------------------------|
F|-10'~-----11'~-----10'~\-|
C|-------------------------| (listen to song for strumming)
G|-------------------------|
C|-------------------------|

Play Riff 4 x2   "I want you to know that you shouldn't be here..."

Riff 7    "I want you to know..." (another guitar continues playing Riff 4)
D|-------------------------------------------------------------|
A|-------------------------------------------------------------|
F|-/10--10-9-7\-/10--10-9-7\-/10--10-9-7\-/10-10-10-10-9-9-9-9-|
C|-------------------------------------------------------------|
G|-------------------------------------------------------------|
C|-------------------------------------------------------------|

Play Riff 7 x2    (last time through slide down from the 9th fret to the 7th
                   fret and let ring)
Play Riff 1 x2

Riff 8
D|-------------------|
A|-------------------|
F|-------------------|
C|-----3-3-3-3-3-3-3-|
G|-0-0-3-3-3-3-3-3-3-|
C|-0-0-3-3-3-3-3-3-3-|
   * *

Play Riff 8 x2

Enjoy!!!
Добавлено: 26.08.2013
Другие материалы по этой песне:
  • Аккорды и текст

Страница создана 26.08.2013
http://primanota.ru/spineshank/i-want-you-to-know-chords.htm
Привет, Гость.
Предлагаем пройти революционный курс по гитаре.
Подарок от PrimaNota.Ru, забирай!