PrimaNota.ru - самый крупный в мире бесплатный архив песенных текстов, аккордов, табулатур и нот


Spineshank - After The End - таба, видео

Регистрация Запомнить меня
Войти через:  Facebook Google Twitter Vk Yandex Mail.ru

Spineshank - After The End - таба, видео

Печатать
Просмотров: 68
Spineshank: After The End

Transcribed by: mysticguitar77

YouTube Username: MysticGuitar77

Date last modified: February 9, 2013

Tuning: Drop C (C,G,C,F,A,D)

Riff 1
D|----------------------------|
A|----------------------------|
F|----------------------------|
C|-0-0-0-1-1-1-0--0-3-5-5-6-6-|
G|-0-0-0-1-1-1-0--0-3-5-5-6-6-|
C|-0-0-0-1-1-1-0--0-3-5-5-6-6-|

Play Riff 1 x4

Riff 2
D|---------------------------------|
A|---------------------------------|
F|---------------------------------|
C|---------------------------------|
G|---------------------------------|
C|-0-0-0-0-3-3-3-3-5-5-5-5-6-6-6-6-|

Play Riff 2 x2

Riff 3   "The picture is fine, perfection is..."
D|---------0~---------------0~--------|
A|---------3~---------------3~--------|
F|---------2~---------------2~--------|
C|-0~------0~-----\-0~------0~------\-|
G|-0~------0~-----\-0~------0~------\-|
C|-0~------0~-----\-0~------0~------\-|

Play Riff 3 x1
Play Riff 1 x4   "The color has faded..."
Play Riff 3 x1   "This scar will never bleed..."
Play Riff 1 x4   "Run to your savior..."

Riff 4   "You try to hide the damage..."
D|-------------------------------------------------------------------------|
A|-------------------------------------------------------------------------|
F|-7-7-7-7-7-7-7---7-7-7---5-5-5---8-8-8-8-8-8-8---10-10-10-10-10-10-10-10-|
C|-x-x-x-x-x-x-x---5-5-5---3-3-3---6-6-6-6-6-6-6---8--8--8--8--8--8--8--8--|
G|-5-5-5-5-5-5-5-0-5-5-5-0-3-3-3-0-6-6-6-6-6-6-6-0-8--8--8--8--8--8--8--8--|
C|-0-0-0-0-0-0-0-0-5-5-5-0-3-3-3-0-6-6-6-6-6-6-6-0-8--8--8--8--8--8--8--8--|

Play Riff 4 x2   "Replace all your anger..."

Riff 5   "After the end!!"
D|----------------------------|
A|----------------------------|
F|------------------------7\5-|
C|-0h1p0-0-0----0h1p0-0-0-x-x-|
G|-0h1p0-0-0----0h1p0-0-0-5\3-|
C|-0h1p0-0-0----0h1p0-0-0-----|
         * *          * *

Play Riff 5 x8   "After the end!!"

Riff 6
D|-------------------------|
A|-------------------------|
F|-------------------------|
C|-0h1p0-0h1p0-0h1p0-0h1p0-|
G|-0h1p0-0h1p0-0h1p0-0h1p0-|
C|-0h1p0-0h1p0-0h1p0-0h1p0-|

Play Riff 3 x1   "Now, the site of your disaster..."
Play Riff 1 x4   "It's cold and it's vacant..."
Play Riff 4 x4   "You try to hide the damage..."
Play Riff 5 x4   "After the end!!"

Ending
D|----------------------------|
A|----------------------------|
F|----------------------------|
C|-0h1p0-0h1p0-0h1p0-0h1p0-0~-|
G|-0h1p0-0h1p0-0h1p0-0h1p0-0~-|
C|-0h1p0-0h1p0-0h1p0-0h1p0-0~-|
                           *

Enjoy!!
Добавлено: 12.06.2013
Другие материалы по этой песне:
  • Аккорды и текст

Страница создана 12.06.2013
http://primanota.ru/spineshank/after-the-end-chords.htm
Привет, Гость.
Предлагаем пройти революционный курс по гитаре.
Подарок от PrimaNota.Ru, забирай!