PrimaNota.ru - самый крупный в мире бесплатный архив песенных текстов, аккордов, табулатур и нот


Spinal Tap - Tonight Im Gonna Rock Ya - таба, видео

Регистрация Запомнить меня
Войти через:  Facebook Google Twitter Vk Yandex Mail.ru

Spinal Tap - Tonight Im Gonna Rock Ya - таба, видео

Печатать
Просмотров: 86
-------------------------------------------------------------
Spinal Tap - Tonight Im Gonna Rock Ya
--------------------------------------------------------------

By:Norm Evans (Noam543@aol.com)


Fig. 1 
Guitar 1 play 4 times
e|----------------------------------------------|
B|----------------------------------------------|
G|----------------------------------------------|
D|----2-2-------------------2-------------------|
A|----0-0----2-2----3---2-3-0-------------------|
E|--3------3-0-0--3---3-0-----------------------|

Guitar 2 Comes in after Guitar 1 Plays Fig. 1 once 
e|--5h8p5h8p5h8p5h8p5h8p5h8p5--8s10--5----------------|
B|----------------------------------------------------|
G|--------------------------------------7^--5h7p5-5---|
D|--------------------------------------------------7-|
A|----------------------------------------------------|
E|----------------------------------------------------|

e|--------------------------------------------------------|
B|--------------------------------------------------------|
G|--7^gradually release and play string-----5h7p5--5-5----|
D|------------------------------------------------------7-|
A|--------------------------------------------------------|
E|--------------------------------------------------------|

Verse Guitar 1 Play once
e|-------------------------------------------------|
B|-------------------------------------------------|
G|-------------------------------------------------|
D|-6s7---9s10--------------------------------------|
A|-4s5---7s8----7-7-9-7--7-7-9-7--7-7-9-7--7-7-9-7-|
E|--------------5-5-5-5--5-5-5-5--5-5-5-5--5-5-5-5-|

Verse Guitar 2 Play once
Guitar 2 Plays the two slide things after Guitar 1
plays them...listen to the song for timing
e|-------------------------------------------------|
B|-------------------------------------------------|
G|-------------------------------------------------|
D|-6s7---9s10--------------------------------------|
A|-4s5---7s8----7-7-9-7--7-7-9-7--7-7-9-7--7-7-9-7-|
E|--------------5-5-5-5--5-5-5-5--5-5-5-5--5-5-5-5-|

Chorus
Guitar 1 and 2 (Guitar 2 still plays slides after Guitar 1 
e|--------------|---------|---------|
B|--------------|---------|---------|
G|--------------|--play-X4|-play-X4-|
D|-6s7---9s10---|---------|-9-9-11-9|
A|-4s5---7s8----|-9-9-11-9|-7-7-7--7|
E|--------------|-7-7-7--7|---------|

Guitar 1 plays Fig. 1
Guitar 2 plays
e|---------------------------------------|
B|----------------------------7^---------|
G|--7^--7^-------5-5-5---5-------7^--7---|
D|-----a.h.-7--7-------7---7-----------7-|
A|---------------------------------------|
E|---------------------------------------|

verse
chorus

Interlude Play 4 Times
e|---------|-------------|
B|---------|-------------|
G|-play X3-|-------------|
D|---------|------7------|
A|-7-7-9-7-|--7-7-5------|
E|-5-5-5-5-|--5-5--------|

Then just play an A5 then D5

Play Fig. 1

e|-5h8p5h8p5h8p5h8p5h8p5---7h10p7h10p7h10p7---------------|
B|--------------------------------------------------------|
G|-------------------------------------------7^-5h7p5-5---|
D|------------------------------------------------------7-|
A|--------------------------------------------------------|
E|--------------------------------------------------------|

verse
chorus

e|---------------------9^--7-7--5-5-------|
B|-7^-------------------------------7^-7^-|
G|----5-7-5-5-----------------------------|
D|------------7---------------------------|
A|----------------------------------------|
E|----------------------------------------|

verse

outro
e|------------------------------------|
B|------------------------------------|
G|------------------------------------|
D|-6s7--9s10-13s14--------------------|
A|-4s5--7s8--11s12-8-8-8-8-8-----8-7--|
E|-----------------6-6-6-6-6-----6-5--|

Make sure you turn your volume all the way up to 11!!!
-------------------------------------------------------------

     
Добавлено: 02.10.2013
Другие материалы по этой песне:
  • Аккорды и текст

Страница создана 02.08.2013
http://primanota.ru/spinal-tap/tonight-im-gonna-rock-ya-chords.htm
Привет, Гость.
Предлагаем пройти революционный курс по гитаре.
Подарок от PrimaNota.Ru, забирай!