PrimaNota.ru - самый крупный в мире бесплатный архив песенных текстов, аккордов, табулатур и нот


Spinal Tap - Stonehenge mandolin folk part - таба, видео

Регистрация Запомнить меня
Войти через:  Facebook Google Twitter Vk Yandex Mail.ru

Spinal Tap - Stonehenge mandolin folk part - таба, видео

Печатать
Просмотров: 62


STONEHENGE
BY SPINAL TAP                                                                                                                                                                                     TAB BY GREG MORRIS
This is the mandolin tab for the folk part near the end of the song.


E|-------------------------|--------------------------|
A|-0----------0------------|-0-----------0------------|
D|-0----------0------------|-0-----------0--------0-2-|
G|-------------------------|--------------------------|

E|-----------------0-------|-------------------0------|----------------0--------|------------------------------|
A|---------0-0-545----5-0-2|-3-3-5-3-2-0-323-5--------|--------0-0-545----5-0-2-|-3-5-3-2-0h2p0----------------|
D|-4-4-5-------------------|----------------------0-2-|-4-4-5-------------------|---------------5-2h4p2--0-0-2-|
G|-------------------------|--------------------------|-------------------------|----------------------5-------|


Добавлено: 25.09.2013
Другие материалы по этой песне:
  • Аккорды и текст

Страница создана 25.09.2013
http://primanota.ru/spinal-tap/stonehenge-mandolin-folk-part-chords.htm
Привет, Гость.
Предлагаем пройти революционный курс по гитаре.
Подарок от PrimaNota.Ru, забирай!