PrimaNota.ru - самый крупный в мире бесплатный архив песенных текстов, аккордов, табулатур и нот


Spinal Tap - Solo - аккорды и текст, таба, видео

Регистрация Запомнить меня
Войти через:  Facebook Google Twitter Vk Yandex Mail.ru

Spinal Tap - Solo - аккорды и текст, таба, видео

Печатать
Просмотров: 80
Solo
Spinal Tap
		   Sender: news@cco.caltech.edu


This is Nigel Tufnel's not so original guitar solo as he plays it in
"This is Spinal Tap."

-5-4-5-7-5--------0-0------------0-------------------5-2-0-------
---------------2------3-3--3^2^3---3--------3-3-2-2---------4-4--
------------2----------------------------1-----------------------
--------------------------------------2--------------------------
-----------------------------------------------------------------
-----------------------------------------------------------------

5-2-0------5-2-4--0-2-5--2h4p2h4p2--0-0--------------------------
------4-4--------------------------------------------------------
-----------------------------------------------------------------
-----------------------------------------------------------------
-----------------------------------------------------------------
-----------------------------------------------------------------


Use lots of distortion, and make sure the volume is on 11.

-Serge

--
|Serge Belongie                 e-mail: sergeb@caltech.edu |
|"I saw a werewolf drinking a pina colada at Trader Vic's. |
|       His hair was PERFECT."                             |
|    				-Warren Zevon              |     
Добавлено: 10.08.2013
Другие материалы по этой песне:
  • Аккорды и текст

Страница создана 22.07.2013
http://primanota.ru/spinal-tap/solo-chords.htm
Привет, Гость.
Предлагаем пройти революционный курс по гитаре.
Подарок от PrimaNota.Ru, забирай!