220688 Spin Doctors - Biscuit Head - текст песни, бас-таба, видео
PrimaNota.ru - самый крупный в мире бесплатный архив песенных текстов, аккордов, табулатур и нот


Spin Doctors - Biscuit Head - текст песни, бас-таба, видео

Регистрация Запомнить меня
Войти через:  Facebook Google Twitter Vk Yandex Mail.ru

Spin Doctors - Biscuit Head - текст песни, бас-таба, видео

Печатать
Просмотров: 118
Уроки эстрадного вокала в Санкт-Петербурге
Biscuit Head Bass

I think the main riffs that ive tabbed are almost perfect, but the Spin Doctors Bassist 
use a fair amount of variation, I guess if you can play this and are interested in spin 
you'll more than likely be making your own variations up! 

Verse – 0:2 – 1:11
G|------------|--------------------------|
D|------------|--------------------------|
A|-7----10--9-|-0h5--0h7--0h7--10--0h10-9|
E|------------|--------------------------|

|-----------------|---------------------------------|
|-----------------|-----5--7b-5--55-4h5-4h5---------|
|-0h5--0h7--10--9-|-5h7--7------7-------------4h5h7-|
|-----------------|---------------------------------|

Chorus 1:11 – 1:31
G|------------------|---------------------|
D|------------------|---------------------|
A|------------------|---------------------|
E|-87h8-77-5-x3-5-7-|--101010-8887-x3-5-7-|

Verse – 1:31 – 2:20
G|------------|---------------------------|
D|------------|---------------------------|
A|-7----10--9-|-0h5--0h7--0h7--10--0h10-9-|
E|------------|---------------------------|

|-----------------|--------------------------------|
|-----------------|-----5--7b-5---55-4h5-4h5-------|
|-0h5--0h7--10--9-|-5h7--7------7------------4h5h7-|
|-----------------|--------------------------------|

Chorus 2:20 – 2:40
G|------------------|---------------------|
D|------------------|---------------------|
A|------------------|---------------------|
E|-87h8-77-5-x3-5-7-|--101010-8887-x3-5-7-|

Solo 2:40 – 3:18
G|----------|
D|----------|
A|-77777777-|
E|----------|

Verse 3:18 – 4:15 (end)
G|------------|---------------------------|
D|------------|---------------------------|
A|-7----10--9-|-0h5--0h7--0h7--10--0h10-9-|
E|------------|---------------------------|

|-----------------|-------------------------------|
|-----------------|----5--7b-5--55-4h5-4h5--------|
|-0h5--0h7--10--9-|-5h7--7-----7------------4h5h7-|
|-----------------|-------------------------------|

enjoy it, this song is hilarious! :D
Добавлено: 22.07.2012
Другие материалы по этой песне:
  • Аккорды и текст

Страница создана 11.03.2012
http://primanota.ru/spin-doctors/biscuit-head-chords.htm
Привет, Гость.
Предлагаем пройти революционный курс по гитаре.
Подарок от PrimaNota.Ru, забирай!