PrimaNota.ru - самый крупный в мире бесплатный архив песенных текстов, аккордов, табулатур и нот


Spill Canvas - Whiskey Dream Kathleen - таба, видео

Регистрация Запомнить меня
Войти через:  Facebook Google Twitter Vk Yandex Mail.ru

Spill Canvas - Whiskey Dream Kathleen - таба, видео

Печатать
Просмотров: 64
Artist: The Spill Canvas
Song: Whiskey Dream Kathleen
Album: Gestalt




Capo on the 3d fret




Dsus2 ( x x 0 2 3 0 )
Cadd9 ( x 3 2 0 3 x )
Asus4 ( x 0 2 2 3 0 )
Em7   ( 0 2 2 0 3 x )




Intro:

         Dsus2

e|---------------------------------0--------|
B|--------------3---------------3-----3-----|
G|--------------2---------------2--------2--|
D|--------0--0------------0--0--------------|
A|--0h2-------------0h2---------------------|
E|------------------------------------------|




Vers:

         Dsus2

e|---------------------------------0--------|
B|--------------3---------------3-----3-----|
G|--------------2---------------2--------2--|
D|--------0--0------------0--0--------------|
A|--0h2-------------0h2---------------------|
E|------------------------------------------|

               Whiskey dream, comfort me,


     Cadd9

e|---------------------------------|
B|---3-------------------------3---|
G|---0-------------------------2---|
D|---2-------------------0--0------|
A|---3-----------------------------|
E|---------------------------------|

   I fell asleep in my clothes





     Asus4         G
Come on Kathleen I know you dont wanna go


         Dsus2

e|---------------------------------0--------|
B|--------------3---------------3-----3-----|
G|--------------2---------------2--------2--|
D|--------0--0------------0--0--------------|
A|--0h2-------------0h2---------------------|
E|------------------------------------------|




         Dsus2

e|---------------------------------0--------|
B|--------------3---------------3-----3-----|
G|--------------2---------------2--------2--|
D|--------0--0------------0--0--------------|
A|--0h2-------------0h2---------------------|
E|------------------------------------------|

   In your mothers car, its where I met your heart



     Cadd9

e|---------------------------------|
B|---3-------------------------3---|
G|---0-------------------------2---|
D|---2-------------------0--0------|
A|---3-----------------------------|
E|---------------------------------|

What a speech in parent, spectacle to see

     Asus4         G
Come on Kathleen I know you dont wanna leave





Chorus:

       Em               G
And it rattles me to my core
                                          Asus4
I swore Ill never let you slip through my fingers like you did
    G
But you did
      Em                G
Now I feel that hallow swell and it hurts like hell
                  Asus4
Do you ever think youre coming back
           G
Please just come on back, home for good



          Dsus2

e|---------------------------------0--------|
B|--------------3---------------3-----3-----|
G|--------------2---------------2--------2--|
D|--------0--0------------0--0--------------|
A|------------------0h2---------------------|
E|------------------------------------------|






Vers: just like the first vers, except hold the last Asus4 and change to a Dsus2

 Dsus2
Rosie sound paper tone, your breath filling up my lungs
    Cadd9                Dsus2
The 3 of us, a makeshift family
     Asus4         G
Come on Kathleen I know you dont wanna leave
   Dsus2
To my baby girl in the picture, could you pass along that I miss her
  Cadd9                          Dsus2
I know you still in there somewhere 
     Asus4                      Dsus2
Come on, Kathleen you know this aint fair





Chorus:

       Em               G
And it rattles me to my core
                                          Asus4
I swore Ill never let you slip through my fingers like you did
    G
But you did
      Em                G
Now I feel that hallow swell and it hurts like hell
                  Asus4
Do you ever think youre coming back
           G
Please just come on back, home for good



Outro:


         Dsus2

e|-----------------0-----------------------0--------|
B|--------------3----3------------------3-----3-----|
G|--------------2------2----------------2--------2--|
D|--------0--0--------------------0--0--------------|
A|------------------------0h2-----------------------|
E|--------------------------------------------------|

Come on back home, come back home for good


          Dsus2

e|-----------------0-----------------------0--------|
B|--------------3----3------------------3-----3-----|
G|--------------2------2----------------2--------2--|
D|--------0--0--------------------0--0--------------|
A|--0h2---------------------0h2---------------------|
E|--------------------------------------------------|

Come on back home, come on back home for good


          Dsus2

e|-----------------0-----------------------0--------|
B|--------------3----3------------------3-----3-----|
G|--------------2------2----------------2--------2--|
D|--------0--0--------------------0--0--------------|
A|--0h2---------------------0h2---------------------|
E|--------------------------------------------------|

Come on back home, come on back home for good



  Cadd9

e|--------------------------------0--------|
B|---3-------------------------3-----3-----|
G|---0-------------------------2--------2--|
D|---2-------------------0--0--------------|
A|---3--------------0h2--------------------|
E|-----------------------------------------|

   I fell asleep in my clothes






         Dsus2

e|-----------------0-----------------------0--------|
B|--------------3----3------------------3-----3-----|
G|--------------2------2----------------2--------2--|
D|--------0--0--------------------0--0--------------|
A|--0h2-------------------0h2-----------------------|
E|--------------------------------------------------|

Come on back home, come on back home for good
(And it rattles me to my core)
Come on back home, come on back home for good
(I swore Ill never let you slip through my fingers like you did, but you did)



  Cadd9

e|--------------------------------0--------|
B|---3-------------------------3-----3-----|
G|---0-------------------------2--------2--|
D|---2-------------------0--0--------------|
A|---3--------------0h2--------------------|
E|-----------------------------------------|

   I fell asleep in my clothes





         Dsus2

e|-----------------0-----------------------0--------|
B|--------------3----3------------------3-----3-----|
G|--------------2------2----------------2--------2--|
D|--------0--0--------------------0--0--------------|
A|--0h2-------------------0h2-----------------------|
E|--------------------------------------------------|

And it rattles me to my core
Come on back home, come on back home for good
I swore Ill never let you slip through my fingers like you did



  Cadd9

e|--------------------------------0-------------------|
B|---3-------------------------3-----3----------------|
G|---0-------------------------2--------2-------------|
D|---2-------------------0--0-------------------0--0--|
A|---3--------------0h2--------------------0h2--------|
E|----------------------------------------------------|

   I fell asleep in my clothes





Come on back home, come on back home for good.
Добавлено: 30.11.2013
Другие материалы по этой песне:
  • Аккорды и текст

Страница создана 30.11.2013
http://primanota.ru/spill-canvas/whiskey-dream-kathleen-chords.htm
Привет, Гость.
Предлагаем пройти революционный курс по гитаре.
Подарок от PrimaNota.Ru, забирай!