PrimaNota.ru - самый крупный в мире бесплатный архив песенных текстов, аккордов, табулатур и нот


Spill Canvas - The Meds - таба, видео

Регистрация Запомнить меня
Войти через:  Facebook Google Twitter Vk Yandex Mail.ru

Spill Canvas - The Meds - таба, видео

Печатать
Просмотров: 58
Artist: Spill Canvas
Song: The Meds
Album: Gestalt



Tuning: Half Step Down



Intro:

eb|----------------------|
Bb|----------------------|
Gb|----6----6----6----6--|
Db|--4----4----4---4-----|
Ab|----------------------|
Eb|----------------------|
 

    F#m                              A

eb|---------------------4-----------------------------------------|
Bb|---------5/7---5--7----7--5-----5------------------------------|
Gb|-----6-----------------------6-----4--4--4-----6----4h6--4-----|
Db|--4-----------------------------------------7---------------7--|
Ab|---------------------------------------------------------------|
Eb|---------------------------------------------------------------|



    D                                     Bm  E      F#m

eb|---------------------4----------------------------2--2--2---|
Bb|---------5/7---5--7----7--5-----5-----------------2--2--2---|
Gb|-----6-----------------------6------4-------------2--2--2---|
Db|--4-------------------------------------7--6------4--4--4---|
Ab|------------------------------------------------------------|
Eb|------------------------------------------------------------|







Vers:


eb|-----------------------------------------------------------------|
Bb|-----------------------------------------------------------------|
Gb|----6----6----6----6-------4----4----4----4----4----4----4----4--|
Db|--4----4----4---4-------2----2----2----2----2----2----2----2-----|
Ab|-----------------------------------------------------------------|
Eb|-----------------------------------------------------------------|



eb|------------------------------------------------|
Bb|------------------------------------------------|
Gb|-----4----4----4----4-------4----4----4----4----|
Db|--1----1----1----1-------1----1----1----1-------|
Ab|------------------------------------------------|
Eb|------------------------------------------------|


eb|--------------------------------------------------------------------|
Bb|--------------------------------------------------------------------|
Gb|-----4----4----4----4-------4----4----4----4------6----6----6----6--|
Db|--0----0----0----0------------------------------4----4----4---4-----|
Ab|-------------------------4----4----4----4---------------------------|
Eb|--------------------------------------------------------------------|




eb|-----------------------------------------------------------------|
Bb|-----------------------------------------------------------------|
Gb|----6----6----6----6-------4----4----4----4----4----4----4----4--|
Db|--4----4----4---4-------2----2----2----2----2----2----2----2-----|
Ab|-----------------------------------------------------------------|
Eb|-----------------------------------------------------------------|



eb|------------------------------------------------|
Bb|------------------------------------------------|
Gb|-----4----4----4----4-------4----4----4----4----|
Db|--1----1----1----1-------1----1----1----1-------|
Ab|------------------------------------------------|
Eb|------------------------------------------------|


eb|-----------------------------------------------|
Bb|-----------------------------------------------|
Gb|-----4----4----4----4-------4----4----4----4---|
Db|--0----0----0----0-----------------------------|
Ab|-------------------------4----4----4----4------|
Eb|-----------------------------------------------|





play this twice







Chorus:



    F#m                              A

eb|---------------------4-----------------------------------------|
Bb|---------5/7---5--7----7--5-----5------------------------------|
Gb|-----6-----------------------6-----4--4--4-----6----4h6--4-----|
Db|--4-----------------------------------------7---------------7--|
Ab|---------------------------------------------------------------|
Eb|---------------------------------------------------------------|



    D                                     Bm  E      F#m

eb|---------------------4----------------------------2--2--2---------2--2--2---|
Bb|---------5/7---5--7----7--5-----5-----------------2--2--2---------2--2--2---|
Gb|-----6-----------------------6------4-------------2--2--2---------2--2--2---|
Db|--4-------------------------------------7--6------4--4--4---------4--4--4---|
Ab|----------------------------------------------------------------------------|
Eb|----------------------------------------------------------------------------|






Vers:


eb|-----------------------------------------------------------------|
Bb|-----------------------------------------------------------------|
Gb|----6----6----6----6-------4----4----4----4----4----4----4----4--|
Db|--4----4----4---4-------2----2----2----2----2----2----2----2-----|
Ab|-----------------------------------------------------------------|
Eb|-----------------------------------------------------------------|



eb|------------------------------------------------|
Bb|------------------------------------------------|
Gb|-----4----4----4----4-------4----4----4----4----|
Db|--1----1----1----1-------1----1----1----1-------|
Ab|------------------------------------------------|
Eb|------------------------------------------------|


eb|-----------------------------------------------|
Bb|-----------------------------------------------|
Gb|-----4----4----4----4-------4----4----4----4---|
Db|--0----0----0----0-----------------------------|
Ab|-------------------------4----4----4----4------|
Eb|-----------------------------------------------|





Chorus:



    F#m                              A

eb|---------------------4-----------------------------------------|
Bb|---------5/7---5--7----7--5-----5------------------------------|
Gb|-----6-----------------------6-----4--4--4-----6----4h6--4-----|
Db|--4-----------------------------------------7---------------7--|
Ab|---------------------------------------------------------------|
Eb|---------------------------------------------------------------|



    D                                     Bm  E

eb|---------------------4----------------------------|
Bb|---------5/7---5--7----7--5-----5-----------------|
Gb|-----6-----------------------6------4-------------|
Db|--4-------------------------------------7--6------|
Ab|--------------------------------------------------|
Eb|--------------------------------------------------|





    F#m                              A

eb|---------------------4-----------------------------------------|
Bb|---------5/7---5--7----7--5-----5------------------------------|
Gb|-----6-----------------------6-----4--4--4-----6----4h6--4-----|
Db|--4-----------------------------------------7---------------7--|
Ab|---------------------------------------------------------------|
Eb|---------------------------------------------------------------|



    D                                     Bm  E

eb|---------------------4----------------------------|
Bb|---------5/7---5--7----7--5-----5-----------------|
Gb|-----6-----------------------6------4-------------|
Db|--4-------------------------------------7--6------|
Ab|--------------------------------------------------|
Eb|--------------------------------------------------|





Bridge:


F#m                      A
   dont get me wrong...
D               Bm       E




     F#m                       A                                         D

eb|--14--14----14--14---14p12---------------------------------------------------12------|
Bb|----------------------------14--12p10--12-------10--12--12/14--12p10--12/14------12--|
Gb|--------------------------------------------11---------------------------------------|
Db|-------------------------------------------------------------------------------------|
Ab|-------------------------------------------------------------------------------------|
Eb|-------------------------------------------------------------------------------------|


                              Bm         E

eb|----------------------------------------|
Bb|-----10--12--12/14--12p10--9--10h9------|
Gb|--11--------------------------------9---|
Db|----------------------------------------|
Ab|----------------------------------------|
Eb|----------------------------------------|


if you want to you can play the first tone of the solo as a 12b14 - bending




Chorus


F#m                      A
   i got the medicine...


    D                                     Bm  E

eb|---------------------4----------------------------|
Bb|---------5/7---5--7----7--5-----5-----------------|
Gb|-----6-----------------------6------4-------------|
Db|--4-------------------------------------7--6------|
Ab|--------------------------------------------------|
Eb|--------------------------------------------------|



    F#m                              A

eb|---------------------4-----------------------------------------|
Bb|---------5/7---5--7----7--5-----5------------------------------|
Gb|-----6-----------------------6-----4--4--4-----6----4h6--4-----|
Db|--4-----------------------------------------7---------------7--|
Ab|---------------------------------------------------------------|
Eb|---------------------------------------------------------------|



    D                                     Bm  E

eb|---------------------4----------------------------|
Bb|---------5/7---5--7----7--5-----5-----------------|
Gb|-----6-----------------------6------4-------------|
Db|--4-------------------------------------7--6------|
Ab|--------------------------------------------------|
Eb|--------------------------------------------------|




Outro:


    F#m                              A

eb|---------------------4-----------------------------------------|
Bb|---------5/7---5--7----7--5-----5------------------------------|
Gb|-----6-----------------------6-----4--4--4-----6----4h6--4-----|
Db|--4-----------------------------------------7---------------7--|
Ab|---------------------------------------------------------------|
Eb|---------------------------------------------------------------|



    D                                     Bm  E      F#m

eb|---------------------4----------------------------2--2--2---|
Bb|---------5/7---5--7----7--5-----5----------9------2--2--2---|
Gb|-----6-----------------------6------4-------------2--2--2---|
Db|--4-------------------------------------7---------4--4--4---|
Ab|------------------------------------------------------------|
Eb|------------------------------------------------------------|





Добавлено: 03.07.2013
Другие материалы по этой песне:
  • Аккорды и текст

Страница создана 03.07.2013
http://primanota.ru/spill-canvas/the-meds-chords.htm
Привет, Гость.
Предлагаем пройти революционный курс по гитаре.
Подарок от PrimaNota.Ru, забирай!