PrimaNota.ru - самый крупный в мире бесплатный архив песенных текстов, аккордов, табулатур и нот


Spill Canvas - My Vicinity - таба, видео

Регистрация Запомнить меня
Войти через:  Facebook Google Twitter Vk Yandex Mail.ru

Spill Canvas - My Vicinity - таба, видео

Печатать
Просмотров: 69
Уроки эстрадного вокала в Санкт-Петербурге
Artist: The Spill Canvas
Song: My Vicinity
Album: Gestalt




Tuning: Half Step Down




F#madd9 ( 4 4 4 2 x x )







Vers:

    E            F#madd9        E

eb|------------------------------------------|
Bb|------------------------------------------|
Gb|-------1----------2---------------1-------|
Db|---------------4---------------2----------|
Ab|----2-----------------------2-------------|
Eb|--0--------/4------------0----------------|

I'm not sure if this will sound absurd

                  G#        A
eb|----------------------------------------|
Bb|----------------------------------------|
Gb|---------------------5---------6--------|
Db|------------------6---------7-----------|
Ab|----------------------------------------|
Eb|--------------/4--------/5--------------|

But you're at the top of my list


     F#                  B
eb|----------------------------------------|
Bb|-----------------------------4----------|
Gb|--------3-----------------4-------------|
Db|-----4----------------------------------|
Ab|----------------------2-----------------|
Eb|--2-------------------------------------|

Of a million things that I prefer




E       F#madd9          E

eb|------------------------------------------|
Bb|------------------------------------------|
Gb|-------1----------2---------------1-------|
Db|---------------4---------------2----------|
Ab|----2-----------------------2-------------|
Eb|--0--------/4------------0----------------|

I know you know no one understands me



    G#          A

eb|-----------------------------|
Bb|-----------------------------|
Gb|---------5---------6---------|
Db|------6---------7------------|
Ab|-----------------------------|
Eb|--/4--------/5---------------|

     Miracle - I adore thee.


    F#           B

eb|----------------------------------------|
Bb|-----------------------------4----------|
Gb|--------3-----------------4-------------|
Db|-----4----------------------------------|
Ab|----------------------2-----------------|
Eb|--2-------------------------------------|

You rescue my integrity



Pre-Chorus:

   C#m          G#         A

eb|------------------------------------------|
Bb|------------------------------------------|
Gb|--------6----------5-----------6----------|
Db|-----6----------6-----------7-------------|
Ab|--4---------------------------------------|
Eb|-------------4-----------5---------5------|

    There's no telling what I would do


    C#m        G#      A            B       E

eb|---------------------------------------------|
Bb|------------------------------------------0--|
Gb|--------6----------5---------6--------4---1--|
Db|-----6----------6---------7--------4------2--|
Ab|--4---------------------------------------2--|
Eb|-------------4---------5---------2--------0--|

     Waking    up to a    world without     you





Chorus:

(E)               G#                    C#m
   If you promise me you'll stay in my vicinity
                  B                      E
Then I'll be that person I swore I would be



(E)  F#madd9  E
G#   A
F#          B
   Please listen to my




Vers: same picking as in the first one


E           F#madd9      E
slack-jawed glossy eyed ramblings
            G#         A
Although my words lost value
             F#                  B
I think that now while it's down I suggest investing
E            F#madd9       E
  You know I know you like no one else does
G#           A            F#                   B
Jellybean be my queen bee we can start our own colony


Pre-Chorus:

C#m          G#         A
There's no telling what I would do
C#m    G#      A       B      E
Waking up to a world without you




Chorus:

E               G#                    C#m
  If you promise me you'll stay in my vicinity
                  B                      E
Then I'll be that person I swore I would be
(E)               G#                    C#m
   If you promise me you'll stay in my vicinity
                  B                      A
Then I'll be that person I swore I would be



Bridge:

(A)       C#m
I deserve no sympathies
A         B
I used up all my apologies
A           C#m
You deserve so much more than me
A                       B
  But if you say you'll stay
                     E
Thats what I'm gonna be


(E)  F#madd9  E
G#   A
F#          B



Chorus:

E               G#                    C#m
  If you promise me you'll stay in my vicinity
                  B                      E
Then I'll be that person I swore I would be
(E)               G#                    C#m
   If you promise me you'll stay in my vicinity
                  B                      E
Then I'll be that person I swore I would be


    (E)      F#madd9        E

eb|------------------------------------------|
Bb|------------------------------------------|
Gb|-------1----------2---------------1-------|
Db|---------------4---------------2----------|
Ab|----2-----------------------2-------------|
Eb|--0--------/4------------0----------------|



     (E)      F#madd9       E

eb|------------------------------------|
Bb|-------------------------0----------|
Gb|-------1----------2------1----------|
Db|---------------4---------2----------|
Ab|----2--------------------2----------|
Eb|--0--------/4------------0----------|
Добавлено: 01.07.2013
Другие материалы по этой песне:
  • Аккорды и текст

Страница создана 01.07.2013
http://primanota.ru/spill-canvas/my-vicinity-chords.htm
Привет, Гость.
Предлагаем пройти революционный курс по гитаре.
Подарок от PrimaNota.Ru, забирай!