if($pnPageInfoTid!=1130433 && $pnPageInfoId!=405) $val=" "; Spill Canvas - Lust A Prima Vista - текст песни, таба, видео
PrimaNota.ru - самый крупный в мире бесплатный архив песенных текстов, аккордов, табулатур и нот


Spill Canvas - Lust A Prima Vista - текст песни, таба, видео

Регистрация Запомнить меня
Войти через:  Facebook Google Twitter Vk Yandex Mail.ru

Spill Canvas - Lust A Prima Vista - текст песни, таба, видео

Печатать
Просмотров: 141
Уроки эстрадного вокала в Санкт-Петербурге
-------------------------------------------------------------------------------
			     LUST A PRIMA VISTA - The Spill Canvas
-------------------------------------------------------------------------------
Tabbed by: Nicky J
Email:NJ07527@students.salisbury.edu

Tuning: standard

2 guitars

~ vibrato
> hold note
h hammer-on
/ slide up
X mute note

Guitar I
e|------------------------------------------------------|
B|--6--------many times-(during the bass drum)----------|
G|-----8------------------------------------------------|
D|--------6---------------------------------------------|
A|------------------------------------------------------|
E|------------------------------------------------------|

Intro

Guitar I
e|---------------------------------------------------------|
B|---------------------------------------------------------|
G|---------------------------------------------------------|
D|--10---10-10-8-----10----10---10-10-8-----6-6-6-8--------|
A|--8----11-11-10----11----8----11-11-10----4-4-4-6--------|
E|---------------------------------------------------------|

Guitar II
e|-------------------------------------------------------------|
B|-------------------------------------------------------------|
G|----------------------------12~------------------------------|
D|---------------------8-10-11--------------6-6-6-8------------|
A|-----------------/11----------------------4-4-4-6------------|
E|-------------------------------------------------------------|

Verse

Guitar I
e|--------------------------------------------------------|
B|--------------------------------------------------------|
G|--------------------------------------------------------|
D|--10---10-10-8-----10----10---10-10-8-----6-6-6-8-------|
A|--8----11-11-10----11----8----11-11-10----4-4-4-6-------|
E|--------------------------------------------------------|

Guitar II
e|------------------------------------------------------------|
B|------------------------------------------------------------|
G|------------------------------------------------------------|
D|--------------8h10------------------------------------------|
A|------------8---------6-8h10-11-10-6h8----------------------|
E|----------(directly after “swoop”, just listen)-------------|

Guitar I
e|---------------------------------------------------------|
B|---------------------------------------------------------|
G|---------------------------------------------------------|
D|--10---10-10-8-----10----10---10-10-8-----6-6-6-6-6------|
A|--8----11-11-10----11----8----11-11-10----4-4-4-4-4------|
E|---------------------------------------------------------|

Guitar II
e|----------------------------------------------------------------------|
B|----------------------------------------------------------------------|
G|----------------------------------------------------------------------|
D|--------------8h10--------------------------------------------1-------|
A|------------8---------6-8h10-11-10-6h8--------------------1-3---1-----|
E|------------------------------------------------------1-4-------------|

Chorus

Guitars I & II
e|------------------------------------------------------------|
B|------------------------------------------------------------|
G|------------------------------------------------------------|
D|------------8-8-6-6-6-6-6-6-6-6-6------------------x4-------|
A|--3-3-3-3-3-6-6-4-4-4-4-4-4-4-4-4---------------------------|
E|--1-1-1-1-1-------------------------------------------------|

Break

Guitar I
e|------------------------------------------------------|
B|------------------------------------------------------|
G|------------------------------------------------------|
D|--10---10-10-8-----10----10---10-10-8-----6-6-6-8-----|
A|--8----11-11-10----11----8----11-11-10----4-4-4-6-----|
E|------------------------------------------------------|

Guitar II
e|------------------------------------------------------|
B|------------------------------------------------------|
G|------------------------------------------------------|
D|--------------8-10-11-10~-----------------6-6-6-8-----|
A|----------/11-----------------------------4-4-4-6-----|
E|------------------------------------------------------|

Verse

Guitar I
e|------------------------------------------------------|
B|------------------------------------------------------|
G|------------------------------------------------------|
D|--10---10-10-8-----10----10---10-10-8-----6-6-6-8-----|
A|--8----11-11-10----11----8----11-11-10----4-4-4-6-----|
E|------------------------------------------------------|

Guitar II
e|------------------------------------------------------|
B|------------------------------------------------------|
G|------------------------------------------------------|
D|--------------8h10------------------------------------|
A|------------8---------6-8h10-11-10-6h8----------------|
E|------------------------------------------------------|

Guitar I
e|---------------------------------------------------------|
B|---------------------------------------------------------|
G|---------------------------------------------------------|
D|--10---10-10-8-----10----10---10-10-8-----6-6-6-6-6------|
A|--8----11-11-10----11----8----11-11-10----4-4-4-4-4------|
E|---------------------------------------------------------|

Guitar II
e|-------------------------------------------------------------------------|
B|-------------------------------------------------------------------------|
G|-------------------------------------------------------------------------|
D|--------------8h10----------------------------------------------1--------|
A|------------8---------6-8h10-11-10-6h8----------------------1-3---1------|
E|--------------------------------------------------------1-4--------------|

Chorus

Guitars I & II
e|-------------------------------------------------------------------|
B|-------------------------------------------------------------------|
G|-------------------------------------------------------------------|
D|------------8-8-6-6-6-6-6-6-6-6-6------------------x4--------------|
A|--3-3-3-3-3-6-6-4-4-4-4-4-4-4-4-4----------------------------------|
E|--1-1-1-1-1--------------------------------------------------------|

Interlude

Guitar I
e|---------------------------------------------------------------------|
B|---------------------------------------------------------------------|
G|---------------------------------------------------------------------|
D|--10>-------------------10--8>-------------------8--6>---------------|
A|--11>-------------------11-10>-------------------10-8>---------------|
E|---------------------------------------------------------------------|

Guitar I
e|---------------------------------------------------------------|
B|---------------------------------------------------------------|
G|---------------------------------------------------------------|
D|--6-6-6-6-6-6-6-6-6-6-6-6-6-6-6-6-8-8-8-8-8-8-8-8--------------|
A|--8-8-8-8-8-8-8-8-4-4-4-4-4-4-4-4-6-6-6-6-6-6-6-6--------------|
E|---------------------------------------------------------------|

Guitar I			    Guitar II
e|----------------------------------------------------------------------|
B|----------------------------------------------------------------------|
G|------------------------------------10--10--10--12-12-12-13-15--------|
D|-----------------------------------/-x---x---x---x--x--x--x--x--------|
A|--3>--------1-3-1--------3>----------8---8---8--10-10-10-11-13--------|
E|--1>---1-4-----------4---1>-------------------------------------------|

Guitar I			     Guitar II
e|----------------------------------------------------------------------|
B|----------------------------------------------------------------------|
G|-------------------------------------13-13-13-12-12-12-10-8-----------|
D|-----------------------------------/--x--x--x--x--x--x--x-x-----------|
A|--3>--------1-3-1--------3>----------11-11-11-10-10-10--8-6-----------|
E|--1>---1-4-----------4---1>-------------------------------------------|

Guitar I		                Guitar II
e|----------------------------------------------------------------------|
B|----------------------------------------------------------------------|
G|------------------------------------10-10-10-12-12-12-13-15-----------|
D|-----------------------------------/-x--x--x--x--x--x--x--x-----------|
A|--3>--------1-3-1--------3>----------8--8--8-10-10-10-11-13-----------|
E|--1>---1-4-----------4---1>-------------------------------------------|

Guitar I                                        Guitar II      Guitars I & II
e|------------------------------------------------------------------------|
B|------------------------------------------------------------------------|
G|-------------------------------------13-13-13-12-12-12-10-8--6-6-6-6-6--|
D|-----------------------------------/--x--x--x--x--x--x--x-x--6-6-6-6-6--|(clap)
A|--3>--------1-3-1--------3>----------11-11-11-10-10-10--8-6--4-4-4-4-4--|
E|--1>---1-4-----------4---1>---------------------------------------------|


Chorus

Guitars I & II
e|-----------------------------------------------------------|
B|-----------------------------------------------------------|
G|-----------------------------------------------------------|
D|------------8-8-6-6-6-6-6-6-6-6-6---------------x8---------|
A|--3-3-3-3-3-6-6-4-4-4-4-4-4-4-4-4--------------------------|
E|--1-1-1-1-1------------------------------------------------|

Guitar II (after chorus 4x)
e|-----------------------------------------11>-------------------------------|
B|--8h9-8h9-8-----------------8h9-8h9----------------------------------------|
G|------------8-6>---5>------------------------(10)-----x2-------------------|
D|---------------------------------------------------------------------------|
A|----------------------------------------------(end note 10 only 2nd time---|
E|---------------------------------------------------------------------------|

Outro

Guitar I
e|---------------------------------------------------------|
B|---------------------------------------------------------|
G|---------------------------------------------------------|
D|--10---10-10-8-----10----10---10-10-8-----6-6-6-8--------|
A|--8----11-11-10----11----8----11-11-10----4-4-4-6--------|
E|---------------------------------------------------------|

Guitar II
e|---------------------------------------------------------|
B|---------------------------------------------------------|
G|---------------------------------------------------------|
D|----------------8-10-11-10~---------------6-6-6-8--------|
A|------------/11---------------------------4-4-4-6--------|
E|---------------------------------------------------------|

Guitar I
e|-----------------------------------------------------------|
B|-----------------------------------------------------------|
G|------------------------------------------6-6-6-8-10-------|
D|--10---10-10-8-----10----10---10-10-8-----6-6-6-8-10-------|
A|--8----11-11-10----11----8----11-11-10----4-4-4-6-8--------|
E|-----------------------------------------------------------|

Guitar II
e|-----------------------------------------------------------|
B|-----------------------------------------------------------|
G|------------------------------------------6-6-6-8-10-------|
D|------------------8-10-11-10~-------------6-6-6-8-10-------|
A|--------------/11-------------------------4-4-4-6-8--------|
E|-----------------------------------------------------------|
Добавлено: 19.03.2012
Другие материалы по этой песне:

Страница создана 19.03.2012
http://primanota.ru/spill-canvas/lust-a-prima-vista-chords.htm
Привет, Гость.
Предлагаем пройти революционный курс по гитаре.
Подарок от PrimaNota.Ru, забирай!