PrimaNota.ru - самый крупный в мире бесплатный архив песенных текстов, аккордов, табулатур и нот


Spill Canvas - Battles - текст песни, таба, видео

Регистрация Запомнить меня
Войти через:  Facebook Google Twitter Vk Yandex Mail.ru

Spill Canvas - Battles - текст песни, таба, видео

Печатать
Просмотров: 95
Battles

Standard tuning

Bass opens,
Then:

verse
------------------------       -----|
------------------------       -----|
6-6--4-4---6-6---4-4---        --4--|
6-6--4-4---6-6---4-4--- x2     --4--|
4-4--2-2---0-0---2-2---        --2--|
------------------------       -----|

Chorus
----------------------      ---------------------------------|
-------6-6--4-4--4-4--      --2-2-2-2-2-2-2-2--4-4-4-4-------|
-4-4--6-6--4-4--4-4-- x3    --2-2-2-2-2-2-2-2--4-4-4-4-------|
-4-4--4-4--2-2--2-2--       --0-0-0-0-0-0-0-0--2-2-2-2-------|
-2-2------------------      ---------------------------------|
*I don't know what the 2nd guitar does here… some higher octave things…

guitar 1:
------------------------       -----|
------------------------       -----|
6-6--4-4---6-6---4-4---        --4--|
6-6--4-4---6-6---4-4--- x2     --4--|
4-4--2-2---0-0---2-2---        --2--|
------------------------       -----|

guitar 2:
-------------------7/9------7/9------7/9----------------------------------------|
------------------------7--------5-------4----4h5p4h5---5/7---------------------|
--4/6/4----------------------------------------------------------8—4/6----------| x2
---------4/6/4------------------------------------------------------------------|
--------------------------------------------------------------------------------|
--------------------------------------------------------------------------------|

verse
------------------------       -----|
------------------------       -----|
6-6--4-4---6-6---4-4---        --4--|
6-6--4-4---6-6---4-4--- x4     --4--|
4-4--2-2---0-0---2-2---        --2--|
-----------------------        -----|
guitar 2:
----------------------------------|----------------------------------------|
----------------------------------|----------------------------------------|
----9p6----4h6---9p6-------4------|--9p6----4h6---9p6----------------------|
----------------------4h6---------|-------------------------4h6p4----------|
----------------------------------|----------------------------------7-4---|
----------------------------------|----------------------------------------|

Chorus
-----------------------      ---------------------------------|
-------6-6--4-4--4-4--       --2-2-2-2-2-2-2-2--4-4-4-4-------|
-4-4--6-6--4-4--4-4--   x3   --2-2-2-2-2-2-2-2--4-4-4-4-------|
-4-4--4-4--2-2--2-2--        --0-0-0-0-0-0-0-0--2-2-2-2-------|
-2-2------------------       ---------------------------------|
Добавлено: 18.04.2012
Другие материалы по этой песне:
  • Аккорды и текст

Страница создана 16.03.2012
http://primanota.ru/spill-canvas/battles-chords.htm
Привет, Гость.
Предлагаем пройти революционный курс по гитаре.
Подарок от PrimaNota.Ru, забирай!