PrimaNota.ru - самый крупный в мире бесплатный архив песенных текстов, аккордов, табулатур и нот


Spiderbait - Straight Through The Sun - бас-таба, видео

Регистрация Запомнить меня
Войти через:  Facebook Google Twitter Vk Yandex Mail.ru

Spiderbait - Straight Through The Sun - бас-таба, видео

Печатать
Просмотров: 121
-------------------------------------------------------------------------------
                             SONG NAME - Band Name
-------------------------------------------------------------------------------
Tabbed by: Oscar Gaszzz / Facebook
E-mail: romanpirce10@hotmail.com

Tuning:

00:07 

G|---------------------------------------------------------------------------|
D|-12-------------12-------------12-------------10-10-10---------------------|
A|---------------------------------------------------------------------------|
E|----10-10----10----10-10----10----10-10----10------------------------------|

01:05

G|----|----|----|-----|------------------------------------------------------|
D|----|----|----|-----|------------------------------------------------------|
A|----|----|----|-----|-------------------------12-12--10-10-----------------|
E|-1--|-3--|-6--|-8---|-0-0-0-0-0-0-0-0-0-0-0-0------------------------------|

G|---------------------------------------------------------------------------|
D|---------------------------------------------------------------------------|
A|-------------------------12-12--10-10--------------------------------------|
E|-0-0-0-0-0-0-0-0-0-0-0-0--------------0-0-0-0-0-0-0-0-0-0-0-0--------------|

G|---------------------------------------------------------------------------|
D|---------------------------------------------------------------------------|
A|-12-12--10-10--------------------------------------------------------------|
E|--------------0-0-0-0-0-0-0-0-0~~~~~~~-------------------------------------|


01:37

G|---------------------------------------------------------------------------|
D|-12-------------12-------------12-------------10-10-10---------------------|
A|---------------------------------------------------------------------------|
E|----10-10----10----10-10----10----10-10----10------------------------------|

02:06

G|----|----|----|-----|------------------------------------------------------|
D|----|----|----|-----|------------------------------------------------------|
A|----|----|----|-----|-------------------------12-12--10-10-----------------|
E|-1--|-3--|-6--|-8---|-0-0-0-0-0-0-0-0-0-0-0-0------------------------------|

G|---------------------------------------------------------------------------|
D|---------------------------------------------------------------------------|
A|-------------------------12-12--10-10--------------------------------------|
E|-0-0-0-0-0-0-0-0-0-0-0-0--------------0-0-0-0-0-0-0-0-0-0-0-0--------------|

G|---------------------------------------------------------------------------|
D|---------------------------------------------------------------------------|
A|-12-12--10-10--------------------------------------------------------------|
E|--------------0-0-0-0-0-0-0-0-0~~~~~~~-------------------------------------|

02:48

02:55

G|-----|--------|--------|--------|------|--------|--------|----------|------|
D|-----|--------|--------|--------|------|--------|--------|----------|------|
A|-----|--------|--------|--------|------|--------|--------|----------|------|
E|-10--|-8--10--|-8--10--|-8--10--|-8-10-|-8--10--|-8--10--|-8--10~~~~|------|

03:22

G|--------------------------------------------------------------|-14/--------|
D|-12-------------12-------------12-------------10-10-10---12~~-|-12/--------|
A|--------------------------------------------------------------|------------|
E|----10-10----10----10-10----10----10-10----10-----------------|------------|




| /  slide up
| \  slide down
| h  hammer-on
| p  pull-off
| ~  vibrato
| +  harmonic
| x  Mute note
===============================================================================
Добавлено: 04.07.2015
Другие материалы по этой песне:
  • Аккорды и текст

Страница создана 04.07.2015
http://primanota.ru/spiderbait/straight-through-sun-chords.htm
Привет, Гость.
Предлагаем пройти революционный курс по гитаре.
Подарок от PrimaNota.Ru, забирай!