PrimaNota.ru - самый крупный в мире бесплатный архив песенных текстов, аккордов, табулатур и нот


Spica - Ghost - таба, видео

Регистрация Запомнить меня
Войти через:  Facebook Google Twitter Vk Yandex Mail.ru

Spica - Ghost - таба, видео

Печатать
Просмотров: 95
(www.spicaworld.com - international SPICA fan forum with discussions relating to the group, and a collection of
news, pictures and chords.)


-------------------------------------------------------------------------------
                              "GHOST" - SPICA
-------------------------------------------------------------------------------


The chords: 

G(dim) D(maj7) A(sus2) Bm(sus2) throughout; the key change goes up by one semitone.


The piano line:

G                  D                   A                   Bm 
|---------------2--|---------------2--|--------------------|---------------5--|
|-3-2-3-2-3-2-3----|-3-2-3-2-3-2-3----|-2-0-2-0-2-0-2-0-2--|-3-2-3-2-3-2-3----|
|--0-0-0-0-0-0-0-0-|------------------|--2-2-2-2-2-2-------|--4-4-4-4-4-4-4---|
|------------------|--0-0-0-0-0-0-0-0-|--------------------|------------------|
|------------------|------------------|--------------------|------------------|
|------------------|------------------|--------------------|------------------|
Добавлено: 08.08.2015
Другие материалы по этой песне:
  • Аккорды и текст

Страница создана 08.08.2015
http://primanota.ru/spica/ghost-chords.htm
Привет, Гость.
Предлагаем пройти революционный курс по гитаре.
Подарок от PrimaNota.Ru, забирай!