PrimaNota.ru - самый крупный в мире бесплатный архив песенных текстов, аккордов, табулатур и нот


Sphynx - Sha Dynasty - таба, видео

Регистрация Запомнить меня
Войти через:  Facebook Google Twitter Vk Yandex Mail.ru

Sphynx - Sha Dynasty - таба, видео

Печатать
Просмотров: 63
SHA DYNASTY
SPHYNX
PRE WILD EP/HUMAN BEAST EXTENDED
TABBED BY JAMESON G. (jpghalio@yahoo.com)
*Listen to song for placement and strumming patterns!

Intro

|----------|
|----------|
|--14------|
|----------|
|----------|
|----------| *Bend up slightly

Verse 1

Verse Bass Line for arranged Guitar (The notes could also be arranged on a Synth):
"Going out tonight..."

|---------------|
|---------------|
|---------------|
|---------------|
|-5-5-9-4-------|
|---------------| ---> After play "Guitar Riff 1" // Bass Continues

|---------------|
|---------------|
|---------------|
|---------------|
|-5-5-9-7-------|
|---------------| ---> After play "Guitar Riff 2"

Guitar Riff 1:

|---------------|
|---------------|
|---------------|
|---------------|
|-9-9-9--7-7-9--|
|---------------| x2

|-----------------------|
|-----------------------|
|-----------------------|
|11-11-11--9-9-11--12-11|
|-----------------------|
|-----------------------|

Guitar Riff 2:

|---------------|
|---------------|
|-9-9-9--9-6----|
|------------7--|
|---------------|
|---------------|

Guitar Riff 3:

|-----------------------|
|-----------------10----|
|9-9-11-9-11-9-11-------|
|-----------------------|
|-----------------------|
|-----------------------|
|-----------------------| x8

Chords Played on Guitar Riff 3 (D D // A F# // C# C# // E F#) x2


Verse 2:
-Drums/Synth plays bass line
-Guitar Riff 1
-Guitar Riff 2
-Guitar Riff 1 + Guitar Riff 4 (x3)
-Guitar Riff 2
-Guitar Riff 1 + Guitar Riff 4 (x3)
-Guitar Riff 2

___________________________________

Guitar Riff 4:
|----5-----5-5--5h7-|
|5h7---5h7----------|
|-------------------|
|-------------------|
|-------------------|
|-------------------|

___________________________________

Transition into Chorus 1:


|---------------|
|---------------|
|-------14------|
|---------------|
|5-5------------|
|---------------| * The A (14 on the G) is a glitch-esc edit and is not requited to play


Chorus 1:

"Fall in love for one night..."

|-------------------------------------------------------------------------------------|
|-------------------------------------------------------------------------------------|
|-------------------------------------------------------------------------------------|
|-----------------7-7-7---------------------------------------------------------------|
|-5-5-5-5-5-5-5-5-------9-9-9--4-4-4-4-4-4-7-9----------------------------------------|
|-------------------------------------------------------------------------------------|

|-------------------------------------------------------------------------------------|
|---------------------------------------------------8---------------------------------|
|----------------------------------------------9h11---11-9----------------------------|
|-----------------7-7-7---------------------------------------------------------------|
|-5-5-5-5-5-5-5-5-------9-9-9--4-4-4-4-4-4-7-7----------------------------------------|
|-------------------------------------------------------------------------------------|

-Guitar Riff 2 (Play w/ Chords)

-Verse 3 (Same as Verse 2 Pattern)

-Chorus 2

-Guitar Riff 2

-Bridge/Breakdown = Same chords as the Chorus (Listen for timing)

-Sax Solo (Same Chords as Chorus)

-Drop Out(Near then end you can faintly hear
Guitar Riff 3 being played at the end.)

-Drum Fill

Outro (Fades Out)

Guitar Riff 5 (Played over Sax Solo):

|------------------------------------------------|
|10---10-10-12-10-10----10-10-12-10-10-10-14-12--|
|--11----------------11--------------------------|
|------------------------------------------------|
|------------------------------------------------|
|------------------------------------------------| *Repeats / Fades Out


-OR-

-Big Rock Ending (from Live footage in Austin, TX @ Morningbell Records)


|-------10-7-5--|
|-10h12---------|
|---------------|
|---------------|
|---------------|
|---------------|

A A A A A E D F# (Improvising Here)

End on A!

And that's it! If you want be to try and figure out the Sax Solo for Guitar I will!
Sources:
Sha Dyasty from Human Beast Extended // Pre Wild EP
Chordify
https://www.youtube.com/watch?v=PhixlIGUx44 (Live Show At SXSW)
http://www.youtube.com/watch?v=B4h0-eG-pn4&list=PLhYda8Q_BaqINkf5n2JuZSD3L2UsBlnF_ (Live 
At Morningbell Records)
http://sphynxmusic.com

Thank You!
Добавлено: 28.09.2013
Другие материалы по этой песне:
  • Аккорды и текст

Страница создана 28.09.2013
http://primanota.ru/sphynx/sha-dynasty-chords.htm
Привет, Гость.
Предлагаем пройти революционный курс по гитаре.
Подарок от PrimaNota.Ru, забирай!