PrimaNota.ru - самый крупный в мире бесплатный архив песенных текстов, аккордов, табулатур и нот


Spencer Schmidt - Bittersweet - таба, видео

Регистрация Запомнить меня
Войти через:  Facebook Google Twitter Vk Yandex Mail.ru

Spencer Schmidt - Bittersweet - таба, видео

Печатать
Просмотров: 202
Уроки эстрадного вокала в Санкт-Петербурге
Hello - found this awesome song recently, searched some tabs ( so i don't have
figure out the song myself )... couldn't find any so here i am.

Song is in E major.

Here are the chords you will be using:


        E    Emaj7   C#m   B    A    Asus2
E-------0------0------0----0----0------0-----|
B-------0------0------0----0----0------0-----|
G-------9------8------6----4----2------1-----|
D-------9------9------6----4----2------2-----|
A-------7------7------4----2----0------0-----|
E-------0------x------x----x----x------x-----|


Notice: under the verse:


"I could spend forever here tonight"

-from the chorus, you can use either:

A E A B ( use this if you want to give it a bit of a change of sound )

or

A Asus2 A B ( use this if you want to keep the same chords as the verse )



For complaints or further info contact me: claudiu.katz@gmail.com

Hope you all have fun learning this song!



Intro - this isn't the exact pattern, but those are the notes

First you go down the fret:

E------0--0----0--0----0--0----0--0----0--0----0--0---|
B----0--0----0--0----0--0----0--0----0--0----0--0-----|
G--9-------8-------6-------4-------2-------1----------|
D-----------------------------------------------------|
A-----------------------------------------------------|
E-----------------------------------------------------|

Then you go back up in the same pattern:

E------0--0----0--0----0--0----0--0----0----0--0------|
B----0--0----0--0----0--0----0--0----0----0--0--------|
G--1-------2-------4-------6-------8----9-------------|
D-----------------------------------------------------|
A-----------------------------------------------------|
E-----------------------------------------------------|


First verse goes like this:

E------0--0----0--0----0--0----0--0----0--0----0--0----0--0----0--0--|
B----0--0----0--0----0--0----0--0----0--0----0--0----0--0----0--0----|
G--9-------8-------6-------4-------2-------1-------2-------4---------|
D--------------------------------------------------------------------|
A--------------------------------------------------------------------|
E--------------------------------------------------------------------|


It is, kind of bittersweet,
like the smile one would have when they know they've
given it their all,
but the smile can't change, that the game has been lost,
that smile is
the only thing you've got,


 c#m     B A E

but it's enough,

 c#m  B   A

to move on.


Chorus:


 E          Emaj7        C#m      B
And i could spend forever in your eyes,

A        E             A        B
I could spend forever here tonight,

 E       Emaj7        C#m       B
and even if you never care for me,

A      E        A     B
i will cherish every memory,

C#m  B       A        E
I spend with you.


Instrumental: E Emaj7 C#m B A 
Asus2 A B


Verse 2: here you strum the same chords from the instrumental:


E  Emaj7 C#m           B
It is,   kind of bittersweet,

A                   Asus2
like the five lines previous

          A              B
and the feeling felt right now,

        E     Emaj7
like if you heard,

 C#m                       B
that a loved one had been lost,

        A           Asus2
but their last words were,

   A              B
i know this is my time,


C#m  B    A    B
I   am   strong.


Chorus x2:


 E          Emaj7        C#m      B
And i could spend forever in your eyes,

A        E             A        B
I could spend forever here tonight,

 E       Emaj7        C#m       B
and even if you never care for me,

A      E        A     B
i will cherish every memory,

C#m  B       A        E
I spend with you.


C#m  B   A
That I spend with you 2x



Here you can pick which ever is easier for you

Instrumental: option 1:

E-------0--0----0--0----0--0----0--0----0--0----|
B-----0--0----0--0----0--0----0--0----0--0------|
G---6-------8-------9-------2-------1-----------|
D-----------------------------------------------|
A-----------------------------------------------|
E-----------------------------------------------|

Instrumental: option 2:

E-------0--0----0--0----0--0----0--0----0--0----|
B-----0--0----0--0----0--0----0--0----0--0------|
G---6-------8-------9---------------------------|
D---------------------------7-------6-----------|
A-----------------------------------------------|
E-----------------------------------------------|


Then again the verse: E - Emaj7 - C#m - B - 
A - Asus2 - A - B

C#m B   A
A   am  free

C#m B   A    E
I   am  free

Outro: First part of the intro - end with an E
Добавлено: 27.09.2013
Другие материалы по этой песне:
  • Аккорды и текст

Страница создана 27.09.2013
http://primanota.ru/spencer-schmidt/bittersweet-chords.htm
Привет, Гость.
Предлагаем пройти революционный курс по гитаре.
Подарок от PrimaNota.Ru, забирай!