PrimaNota.ru - самый крупный в мире бесплатный архив песенных текстов, аккордов, табулатур и нот


Speedstar - Unbreakable - таба, видео

Регистрация Запомнить меня
Войти через:  Facebook Google Twitter Vk Yandex Mail.ru

Speedstar - Unbreakable - таба, видео

Печатать
Просмотров: 70
Song: Unbreakable
Released On: Forget The Sun, Just Hold On (Track 5)

Transcribed by Paul @ OzTabs (oztabs@bigpond.com)
www.ozmusic-central.com.au/oztabs

Transcribed: 24 May 2004

Notes: I know this is mainly based on the piano, but
it sounds nice on guitar with a capo. Capo on 5th fret!
All notes are relative to the capo. This song is awesome!
Comments & corrections welcome.

INTRO / VERSES:
E-|-2-2--2-2-2---3-3--3-3-3---0-0--0-0-0---3-3--3-3-3-|-
B-|-3-3--3-3-3---3-3--3-3-3---3-3--3-3-3---3-3--3-3-3-|-
G-|-2-2--2-2-2---2-2--2-2-2---2-2--2-2-2---2-2--2-2-2-|-
D-|-0-0--0-0-0---0-0--0-0-0---0-0--0-0-0---0-0--0-0-0-|-
A-|---------------------------------------------------|-
E-|---------------------------------------------------|-

CHORUS: (play notes in brackets 1st time through only - 2nd time go into the brdige)
E-|-3-3--3-3-3--3-3--3-3-3--0-0--0-0-0----------------------------------3-3-2-2-0-0-2-2-|-
B-|-3-3--3-3-3--3-3--3-3-3--0-0--0-0-0--3-3--3-3-3--5-5--5-5--5-5--5-5--3-3-3-3-3-3-3-3-|-
G-|-0-0--0-0-0--0-0--0-0-0--0-0--0-0-0--2-2--2-2-2--2-2--2-2--2-2--2-2--2-2-2-2-2-2-2-2-|-
D-|-0-0--0-0-0--0-0--0-0-0--2-2--2-2-2--0-0--0-0-0--2-2--2-2--2-2--2-2--0-0-0-0-0-0-0-0-|-
A-|-2-2--2-2-2--x-x--x-x-x--2-2--2-2-2--------------0-0--0-0--0-0--0-0------------------|-
E-|-3-3--3-3-3--2-2--2-2-2--0-0--0-0-0--------------------------------------------------|-

E-|-3-3--3-3-3--3-3--3-3-3--0-0--0-0-0---------------------------------------------------------|-
B-|-3-3--3-3-3--3-3--3-3-3--0-0--0-0-0--3-3--3-3-3--5-5--5-5--5-5--5-5--1-1--1-1--1-1--1-1-----|-
G-|-0-0--0-0-0--0-0--0-0-0--0-0--0-0-0--2-2--2-2-2--2-2--2-2--2-2--2-2--0-0--0-0--0-0--0-0-----|-
D-|-0-0--0-0-0--0-0--0-0-0--2-2--2-2-2--0-0--0-0-0--2-2--2-2--2-2--2-2--2-2--2-2--2-2--2-2-----|-
A-|-2-2--2-2-2--x-x--x-x-x--2-2--2-2-2--------------0-0--0-0--0-0--0-0--3-3--3-3--3-3--3-3-(2)-|-
E-|-3-3--3-3-3--2-2--2-2-2--0-0--0-0-0-----------------------------------------------------(3)-|-


BRIDGE:
E-|--------------------------------------------------------------------|----------|-
B-|-5-5-5-5-5-5-5-5--1-1-1-1-1-1-1-1--5-5-5-5-5-5-5-5--1-1-1-1-1-1-1-1-|----------|-
G-|-2-2-2-2-2-2-2-2--0-0-0-0-0-0-0-0--2-2-2-2-2-2-2-2--0-0-0-0-0-0-0-0-|-0--0--2--|-
D-|-2-2-2-2-2-2-2-2--2-2-2-2-2-2-2-2--2-2-2-2-2-2-2-2--2-2-2-2-2-2-2-2-|-0--0--2--|-
A-|-0-0-0-0-0-0-0-0--3-3-3-3-3-3-3-3--0-0-0-0-0-0-0-0--3-3-3-3-3-3-3-3-|-2--x--0--|-
E-|--------------------------------------------------------------------|-3--2-----|-

Then play outro which is the intro / verse progressions.


Lyrics:

Tell myself all the time that it's getting better, that it's all inside my mind
Tell myself all the time that i'm really messed up, but i feel fine

Just don't let me fall for anybody else, until you make me 
Unbreakable and ready for the world to turn

Hold my head for a while, till i'm feeling better to catch a thought that's on my mind
hold my breath for a while as the sun in setting and breathe in the light

Just don't let me fall for anybody else, until you make me 
Unbreakable and ready for the world to turn
Добавлено: 09.03.2012
Другие материалы по этой песне:
  • Аккорды и текст

Страница создана 09.03.2012
http://primanota.ru/speedstar/unbreakable-chords.htm
Привет, Гость.
Предлагаем пройти революционный курс по гитаре.
Подарок от PrimaNota.Ru, забирай!