PrimaNota.ru - самый крупный в мире бесплатный архив песенных текстов, аккордов, табулатур и нот


Speedealer - We Are Diseased - таба, видео

Регистрация Запомнить меня
Войти через:  Facebook Google Twitter Vk Yandex Mail.ru

Speedealer - We Are Diseased - таба, видео

Печатать
Просмотров: 62
SPEEDEALER


Album: HERE COMES DEATH


Song: WE ARE DISEASED


transcribed by: Rudy Guzman


guzman_84@hotmail.com


i must say that this is a great song, it rules!!! i was really impressed
by it, the first time i've heard, i couldnt get it out of my head,
you need to hear it. i dont know the lyrics thou


   2 times
eb:------------------------------|
Bb:------------------------------|
Gb:------------------------------|
Db:-2-----------2-----2----------|
Ab:-0--3p0-3p0--0-3p0-0-3p0------|
Eb:-------------------------3-4--|


   repeat
eb:------------------------------|
Bb:------------------------------|
Gb:------------------------------|
Db:-2-----------2-----2----------|
Ab:-0--3p0-3p0--0-3p0-0-3p0------|
Eb:-------------------------3-4--|



eb:--------------------------------------|
Bb:--------------------------------------|
Gb:--------------------------------------|
Db:-9--9-9-9-8-7--7-7-7-7-7--5-5-5-5-5-5-|
Ab:-7--7-7-7-6-5--5-5-5-5-5--3-3-3-3-3-3-|
Eb:--------------------------------------|


   verse
     PM.................
eb:----------------------------------|
Bb:----------------------------------|
Gb:----------------------------------|
Db:-2--2-2-2-2-2-2-2-2-2--5-5---5--7-|
Ab:-0--0-0-0-0-0-0-0-0-0--3-3-0-3--5-|
Eb:----------------------------------|


     PM.................
eb:-----------------------------------|
Bb:-----------------------------------|
Gb:-----------------------------------|
Db:-2--2-2-2-2-2-2-2-2-2--8-8----5--7-|
Ab:-0--0-0-0-0-0-0-0-0-0--6-6-0--3--5-|
Eb:-----------------------------------|


eb:--------------------------------------|
Bb:--------------------------------------|
Gb:--------------------------------------|
Db:-9--9-9-9-8-7--7-7-7-7-7--5-5-5-5-5-5-|
Ab:-7--7-7-7-6-5--5-5-5-5-5--3-3-3-3-3-3-|
Eb:--------------------------------------|



eb:--------------------------------------------------------|
Bb:--------------------------------------------------------|
Gb:--------------------------------------------------------|
Db:-2-2-2--5--------------5--------------5-----------------|
Ab:-0-0-0--3--5--7-7-7-7--3--5--7-7-7-7--3--5--7-7-7-7-7-7-|
Eb:-----------3--5-5-5-5-----3--5-5-5-5-----3--5-5-5-5-5-5-|


   lyrics
eb:----------------------------------|
Bb:----------------------------------|
Gb:----------------------------------|
Db:-2--2-2-2-2-2-2-2-2-2--5-5---5--7-|
Ab:-0--0-0-0-0-0-0-0-0-0--3-3-0-3--5-|
Eb:----------------------------------|


     PM.................
eb:-----------------------------------|
Bb:-----------------------------------|
Gb:-----------------------------------|
Db:-2--2-2-2-2-2-2-2-2-2--8-8----5--7-|
Ab:-0--0-0-0-0-0-0-0-0-0--6-6-0--3--5-|
Eb:-----------------------------------|


eb:--------------------------------------|
Bb:--------------------------------------|
Gb:--------------------------------------|
Db:-9--9-9-9-8-7--7-7-7-7-7--5-5-5-5-5-5-|
Ab:-7--7-7-7-6-5--5-5-5-5-5--3-3-3-3-3-3-|
Eb:--------------------------------------|

   repeat 2 times                        we are diseased
eb:--------------------------------------------------------|
Bb:--------------------------------------------------------|
Gb:--------------------------------------------------------|
Db:-2-2-2--5--------------5--------------5-----------------|
Ab:-0-0-0--3--5--7-7-7-7--3--5--7-7-7-7--3--5--7-7-7-7-7-7-|
Eb:-----------3--5-5-5-5-----3--5-5-5-5-----3--5-5-5-5-5-5-|



eb:---------------------------------|
Bb:---------------------------------|
Gb:---------------------------------|
Db:-7--7-7-7-7-7-7-7--5-5-5-5-5-5-5-|
Ab:-5--5-5-5-5-5-5-5--3-3-3-3-3-3-3-|
Eb:---------------------------------|


   we didnt say life was fair
eb:------------------------------|
Bb:------------------------------|
Gb:------------------------------|
Db:------------------------------|
Ab:-6--5--3--5--3~~~~------------|
Eb:------------------------------|



   repeat
eb:------------------------------|
Bb:------------------------------|
Gb:------------------------------|
Db:-2-----------2-----2----------|
Ab:-0--3p0-3p0--0-3p0-0-3p0------|
Eb:-------------------------3-4--|


   repeat 2 times
                                       we are diseased!
eb:--------------------------------------------------------|
Bb:--------------------------------------------------------|
Gb:--------------------------------------------------------|
Db:-2-2-2--5--------------5--------------5-----------------|
Ab:-0-0-0--3--5--7-7-7-7--3--5--7-7-7-7--3--5--7-7-7-7-7-7-|
Eb:-----------3--5-5-5-5-----3--5-5-5-5-----3--5-5-5-5-5-5-|
     
Добавлено: 04.10.2013
Другие материалы по этой песне:
  • Аккорды и текст

Страница создана 03.10.2013
http://primanota.ru/speedealer/we-are-diseased-chords.htm
Привет, Гость.
Предлагаем пройти революционный курс по гитаре.
Подарок от PrimaNota.Ru, забирай!