PrimaNota.ru - самый крупный в мире бесплатный архив песенных текстов, аккордов, табулатур и нот


Speedealer - Nothing To Me - таба, видео

Регистрация Запомнить меня
Войти через:  Facebook Google Twitter Vk Yandex Mail.ru

Speedealer - Nothing To Me - таба, видео

Печатать
Просмотров: 97
SPEEDEALER


Album: speedealer


Song: nothing to me


transcribed by: Rudy Guzman


guzman_84@hotmail.com




e:-----------------------------------------|
B:-----------------------------------------|
G:-2-2-2--4p2-4p2-4p2-2-2-2--4p2-4p2-----2-|
D:-0-0-0--0---0---0---0-0-0--0---0-------0-|
A:-----------------------------------0-3---|
E:-----------------------------------------|


verse
   repeat
e:-----------------------------------------------------|
B:-----------------------------------------------------|
G:-2-4--2-4---2---4--2-4--2-4---2--4-2-4--2-4--2-------|
D:-0-0--0-0---0---0--0-0--0-0---0--0-0-0--0-0--0-------|
A:------------------------------------------------0--3-|
E:-----------------------------------------------------|

   dont care about nothing
e:-------------------------|
B:-------------------------|
G:-------------------------|
D:-2--2-2-2-2-2-2-2-2-2----|
A:-0--0-0-0-0-0-0-0-0-0----|
E:-----------------------3-|

   i dont care about you
e:-------------------------|
B:-------------------------|
G:-------------------------|
D:-2--2-2-2-2-2-2-2-2-2--5-|
A:-0--0-0-0-0-0-0-0-0-0--3-|
E:-------------------------|

   i dont ...
e:-------------------------|
B:-------------------------|
G:-------------------------|
D:-2--2-2-2-2-2-2-2-2-2----|
A:-0--0-0-0-0-0-0-0-0-0----|
E:-----------------------3-|


e:----------------------|
B:----------------------|
G:----------------------|
D:-2--2-2-2-2-2-2-2-2-2-|
A:-0--0-0-0-0-0-0-0-0-0-|
E:----------------------|


e:-------------------------------------|
B:-------------------------------------|
G:-------------------------------------|
D:------------------12-12-12-12-12--10-|
A:-5-5-5-55--7-8-9--10-10-10-10-10--8--|
E:-3-3-3-33--5-6-7---------------------|


   repeat
e:-----------------------------------------------------|
B:-----------------------------------------------------|
G:-2-4--2-4---2---4--2-4--2-4---2--4-2-4--2-4--2-------|
D:-0-0--0-0---0---0--0-0--0-0---0--0-0-0--0-0--0-------|
A:------------------------------------------------0--3-|
E:-----------------------------------------------------|

   i dont care about nothing
e:-------------------------|
B:-------------------------|
G:-------------------------|
D:-2--2-2-2-2-2-2-2-2-2----|
A:-0--0-0-0-0-0-0-0-0-0----|
E:-----------------------3-|

   i dont care about you
e:-------------------------|
B:-------------------------|
G:-------------------------|
D:-2--2-2-2-2-2-2-2-2-2--5-|
A:-0--0-0-0-0-0-0-0-0-0--3-|
E:-------------------------|

   i dont care about nothing baby
e:-------------------------|
B:-------------------------|
G:-------------------------|
D:-2--2-2-2-2-2-2-2-2-2----|
A:-0--0-0-0-0-0-0-0-0-0----|
E:-----------------------3-|


e:----------------------|
B:----------------------|
G:----------------------|
D:-2--2-2-2-2-2-2-2-2-2-|
A:-0--0-0-0-0-0-0-0-0-0-|
E:----------------------|


e:-------------------------------------|
B:-------------------------------------|
G:-------------------------------------|
D:------------------12-12-12-12-12--10-|
A:-5-5-5-55--7-8-9--10-10-10-10-10--8--|
E:-3-3-3-33--5-6-7---------------------|


   solo

e:--------------------------------------------------------------|
B:---3--5p3-5p3-5p3-5p3-5p3-5p3-5b--5p3-5p3-5p3-5p3-5p3-5p3-3~~-|
G:-5p3--5p3-5p3-5p3-5p3-5p3-5p3-5b--5p3-5p3-5p3-5p3-5p3-5p3-3~~-|
D:--------------------------------------------------------------|
A:--------------------------------------------------------------|
E:--------------------------------------------------------------|


e:---------------------------------------------------|
B:-5p3-5p3-5p3-5p3-5p3-5p3-5p3-5b--------------------|
G:-5p3-5p3-5p3-5p3-5p3-5p3-5p3-5b--5p3--5--5b--5p3---|
D:-------------------------------------------------5-|
A:---------------------------------------------------|
E:---------------------------------------------------|


   i dont care about nothing
e:-------------------------|
B:-------------------------|
G:-------------------------|
D:-2--2-2-2-2-2-2-2-2-2----|
A:-0--0-0-0-0-0-0-0-0-0----|
E:-----------------------3-|

   i dont care about you
e:-------------------------|
B:-------------------------|
G:-------------------------|
D:-2--2-2-2-2-2-2-2-2-2--5-|
A:-0--0-0-0-0-0-0-0-0-0--3-|
E:-------------------------|


e:-------------------------|
B:-------------------------|
G:-------------------------|
D:-2--2-2-2-2-2-2-2-2-2----|
A:-0--0-0-0-0-0-0-0-0-0----|
E:-----------------------3-|


e:----------------------|
B:----------------------|
G:----------------------|
D:-2--2-2-2-2-2-2-2-2-2-|
A:-0--0-0-0-0-0-0-0-0-0-|
E:----------------------|


e:----------------------------------------|
B:----------------------------------------|
G:----------------------------------------|
D:------------------12-12-12-12-12--10--7-|
A:-5-5-5-55--7-8-9--10-10-10-10-10--8---5-|
E:-3-3-3-33--5-6-7------------------------|





screamer



speedealer



guzman_84@hotmail.com


e:-----------------------------------|
B:-----------------------------------|
G:-----------------------------------|
D:-----------------------------------|
A:---------------0-0--1-1-1--2b-2b---|
E:-0-0-0--3-3-3----------------------|

e:-----------------------------------|
B:-----------------------------------|
G:-----------------------------------|
D:-----------------------------------|
A:---------------0-0-0--1-1-1--2b-2b-|
E:-0-0-0--3-3-3----------------------|

 verse
  gt1
e:-----------------------------------|
B:-----------------------------------|
G:-----------------------------------|
D:-----------------------------------|
A:---------------0-0-0--1-1-1--2b-2b-|
E:-0-0-0--3-3-3----------------------|
  gt2
e:-----------------------------------|
B:-----------------------------------|
G:-----------------------------------|
D:---------------2-2-2--3-3-3--4--4--|
A:-2-2-2--5-5-5--0-0-0--1-1-1--2--2--|
E:-0-0-0--3-3-3----------------------|

 screamer! screamer!
:-------------------------|
:-------------------------|
:-------------------------|
:-------------------------|
:--10--7--10--7--10--7----|
:--8---5--8---5--8---5----|


e:-----------------------|
B:-----------------------|
G:-----------------------|
D:-----------------------|
A:-10--7---10--10--------|
E:-8---5---8---8---------|


          
:------------------|
:-5-7-5--7b--------|
:-5-7-5--7b-7b-----|
:------------------|
:------------------|
:------------------|

 verse
  gt1
e:-----------------------------------|
B:-----------------------------------|
G:-----------------------------------|
D:-----------------------------------|
A:---------------0-0-0--1-1-1--2b-2b-|
E:-0-0-0--3-3-3----------------------|
  gt2
e:-----------------------------------|
B:-----------------------------------|
G:-----------------------------------|
D:---------------2-2-2--3-3-3--4--4--|
A:-2-2-2--5-5-5--0-0-0--1-1-1--2--2--|
E:-0-0-0--3-3-3----------------------|

 screamer! screamer!
:-------------------------|
:-------------------------|
:-------------------------|
:-------------------------|
:--10--7--10--7--10--7----|
:--8---5--8---5--8---5----|

e:-------------------|
B:-------------------|
G:-------------------|
D:-5-6-7-8-9~~~--(9)-|
A:-3-4-5-6-7~~~--(7)-|
E:-------------------|

  repeat
e:------------------------------|
B:------------------------------|
G:------------------------------|
D:------------------------------|
A:------------------------------|
E:-0h3p0--3--3--0-0--3p0--3h5-0-|

  gt1
e:-----------------------------------|
B:-----------------------------------|
G:-----------------------------------|
D:-----------------------------------|
A:---------------0-0-0--1-1-1--2b-2b-|
E:-0-0-0--3-3-3----------------------|
  gt2
e:-----------------------------------|
B:-----------------------------------|
G:-----------------------------------|
D:---------------2-2-2--3-3-3--4--4--|
A:-2-2-2--5-5-5--0-0-0--1-1-1--2--2--|
E:-0-0-0--3-3-3----------------------|


e:---------|
B:---------|
G:---------|
D:---------|
A:-2-2-----|
E:-0-0-----|


brings a lot of memories, 11 years has passed, still loving that band



hillo son mex


tabbed 2001

re tabbed 19/08/11
Добавлено: 04.06.2012
Другие материалы по этой песне:
  • Аккорды и текст

Страница создана 04.06.2012
http://primanota.ru/speedealer/nothing-to-me-chords.htm
Привет, Гость.
Предлагаем пройти революционный курс по гитаре.
Подарок от PrimaNota.Ru, забирай!