PrimaNota.ru - самый крупный в мире бесплатный архив песенных текстов, аккордов, табулатур и нот


Speck - Mercy - таба, видео

Регистрация Запомнить меня
Войти через:  Facebook Google Twitter Vk Yandex Mail.ru

Speck - Mercy - таба, видео

Печатать
Просмотров: 70
		   Title: Mercy
Artist: Speck
Copyright: Bulletproof Records
Tabbed by: Eric Pierson (biff.the.riff@juno.com)

(3/4 timing?)

-Intro:    I'm not sure about this lead part, but it sounds something like:
e|---------------------------------------------------------------
B|-------------------7-7-7-7-7-7--------------------7-7-7-7-7-7--
G|-------------------x-x-x-x-x-x--------------------x-x-x-x-x-x--
D|--5-5-5-5-5-5-5-5--5-5-5-5-5-5---5-5-5-5-5-5-5-5--5-5-5-5-5-5--
A|---------------------------------------------------------------
E|---------------------------------------------------------------


-VERSE:          G     E     D     C
            e|-------------------------
            B|-------------------------
            G|---------9-----7-----5---
            D|---5-----9-----7-----5---
            A|---5-----7-----5-----3---
            E|---3---------------------

(Palm mute)  G        E           D	          C            G            E
                Mercy in my being grow, Mercy be Someone I know,  Mercy be a
           D           C               G   (open)           E                  D	 
grapefruit tree, Mercy be not far from me             Mercy loves and loves me more    
      C             G             E                D            C
Mercy loves me as a whore,  Mercy stays to hear me lie    Mercy leaves me then I die
 

--CHORUS:     E              C               G                 D
          e|---------------------------------------------------------------------
          B|---------------------------------------------------------------------
          G|--9----9---------5----5----------------------------7--7--7--7--7--7--  2x
          D|--9----9---------5----5----------5--5--5--5--5--5--7--7--7--7--7--7--
          A|--7----7---------3----3----------5--5--5--5--5--5--5--5--5--5--5--5--
          E|---------------------------------3--3--3--3--3--3--------------------
                       Mercy live me,  Mercy be me ,     Mercy do not die in me


(on second time of chorus stay on G (instead of going to D)then go to D,C back to G)

-- intro riff over verse chords>--


(P.M.)  G        E                 D         C            G	          E             D
           Mercy for the shape I'm in, Mercy for killing again, Mercy holds my penalty    
      C           G     (open)       E		   D            C                G
for a Victim on a tree,        Mercy made a deadly fist   put a nail in foot and wrist
	   E        D                 C     
cuz I'll never be enough    Mercy's name is Jesus

- Chorus>-

e|----------------------------------------------------------------------------------
B|----------------------------------------------------------------------------------
G|--------------9---11~~~~----------9---11~~~~---------9---11~~~~---------9---11~~~~
D|--------------9-------------------9------------------9------------------9---------
A|--------------7-------------------7------------------7------------------7---------
E|----------------------------------------------------------------------------------
  don't die in me     don't die in me    don't die in me    don't die in me

(next part is played over verse chords something like:)
e|--------------------------------------------------------------
B|--------------------------------------------------------------
G|---11-11-11-11-9---11-11-11-11-9---11-11-11-11-9---9-9-9-7-5--  2x
D|--------------------------------------------------------------
A|--------------------------------------------------------------
E|--------------------------------------------------------------

 Chorus>

punk-beat part:
     same as chorus chords exc
     
Добавлено: 11.09.2013
Другие материалы по этой песне:
  • Аккорды и текст

Страница создана 11.09.2013
http://primanota.ru/speck/mercy-chords.htm
Привет, Гость.
Предлагаем пройти революционный курс по гитаре.
Подарок от PrimaNota.Ru, забирай!